Follow Us On Follow us on Facebook Follow us on Twitter Watch us on YouTube
Register
Results 1 to 5 of 5
  1. #1
    Mehvar is offline *hippie~guitarist*
    Join Date
    Nov 2003
    Location
    Pakiland
    Posts
    48

    Hum TUM - HUM TUM BY ME!!

    ok since no one replyed to my other post,..i did some tabbing of
    Hum tum..its new song...the "BEST SONG OF 04" hehe :P

    not best but its ok...here it is...abhi pura nahi huva?
    but do lemme know how it is

    Hum Tum - Hum tum

    e----------------------9-7-------------------------------------------
    B-7-9--5-7-9-5-7-9-----7-----------------------------------------
    G----------------------------------------------------------------
    D----------------------------------------------------------------
    A----------------------------------------------------------------
    E----------------------------------------------------------------
    Saanso Ko Sanso mein dhal ne do zara 4X

    e---------------------------------------------------------------------------
    B-7-9-7-/-55-7-5-4--------------5-7-7/9-7-5~-----5/7~--5/7h5-4~-
    G----------------------------------------------------------------------------
    D--------------------------------------------------------------------------
    A---------------------------------------------------------------------------
    E----------------------------------------------------------------------------
    Lamho ke guzarish hai yeee paas a jaye ye hummmm hum tum 1X


    / -> Slide
    ~ -> Hold for a lil while (hear the song)
    h -> hammeron



    Done By MehvAr Amin!
    Attached Files Attached Files

  2. #2
    Mehvar is offline *hippie~guitarist*
    Join Date
    Nov 2003
    Location
    Pakiland
    Posts
    48

    Ummm

    Come on ppl...Kuch toh batao kaisa hai..download the file for the
    corect "VIEW"
    is it ok...was my first tryy,.

  3. #3
    bhau is offline Newbie
    Join Date
    Nov 2003
    Location
    India
    Posts
    20
    start is quite good but i don't remember the later part

    Lad ki kyon.....Hum tum

    music

    D ----9----------------------11-9-------------------
    G -------11-9-11-9-11-9--------------------------

    D ----9-----------------------11/14-----------------
    G --------11-9-11-9-11-9--------------------------

    song

    Kam woh samajti hai
    G -------9-9-9-9/10----------------------------
    D --7-7-------------------------------------------

    sochti hai jyada
    G ----7--------------9----------------------------
    D --------10-9-10------------------------------------

    Ladki kyon , najane kyon
    G -----------------9-7----------------------------
    D ----7--9--10--------10-9---------------------

    ladko si nahi hoti
    G ----------------------------------------------
    D ---9-7-9--10-10--9-7-----------------------------------

  4. #4
    Mehvar is offline *hippie~guitarist*
    Join Date
    Nov 2003
    Location
    Pakiland
    Posts
    48
    THAANNNXXXXX Dude..if i can better it i ll post it aswell

  5. #5
    neo_usafz's Avatar
    neo_usafz is offline Newbie
    Join Date
    Jan 2005
    Posts
    19
    thanx man its nice
    u can,t stop the MAN who will stop at nothing

 

 

Bookmarks

Posting Permissions

  • You may not post new threads
  • You may not post replies
  • You may not post attachments
  • You may not edit your posts
  •  
Single Sign On provided by vBSSO