Follow Us On Follow us on Facebook Follow us on Twitter Watch us on YouTube
Register
Results 1 to 2 of 2
  1. #1
    VisOrchestraGrp is offline Pro Tabber
    Join Date
    Oct 2006
    Posts
    432

    Smile Ho Agar Kabhi Koi Gham : Ta Ra Rum Pum Tabs, Music

    MOVIE : TA RA RUM PUM
    ORIGIONAL SCALE : Em

    NOTE : Here *s indicates Sa of lower octave , s indicates Sa of middle
    octave while S indicates Sa of higher octave and so on .

    Please also note that r1 , g1 , d1 , n1 indicates keys ( notes ) that is
    present on the left side of r , g , d , n .

    HO AGAR KABHI KOI GHAM TO
    p__mp___g1m__pm_g1r___g1
    G |--4--2-4----2--4-2-----------------------
    D |----------5----------5-4-5----------------

    BILKUL NA TUM GHABRANA
    g1g1__m__r____*n1*ps
    D |--5-5-7--4---------2--------------------------
    A |-------------5-2------------------------------

    TA RA RA RA RUM TA RA RUM PUM (TWICE )
    s__r__g1_m__r___g1_r_*n1*p_s
    D |--2-4-5-7-4--5-4------2---------------
    A |------------------5-2------------------

    BAS RAHE YAKEEN YE TUMKO
    Same as Line 1

    KHUSIYON KO TO HAI AANA
    Same as Line 2

    TA RA RA RA RUM TA RA RUM PUM
    Same

    RAAT HAI TO SAVERA BHI HOGA HAI SAFAR TO BASERA BHI HOGA
    sr____g1_m__rg1d1__p___mr ( Twice )
    G |----------------5-4-2---------------------------
    D |--2-4-5-7--4-5---------4------------------------

    GHAM KE AAGE MUSKURAKE GAAYEN HUM .............
    g1___g1_n1n1_d1pd1d1____pmg1___pmpd1pmpd1p
    G |-------7-7--5-4-5-5---4-2-0--4-2-4-5-4-2-4-5-4---------------
    D |--5-5-----------------------------------------------------------


    MUSIC ------

    Sn1d1p mpd1p g1s sn1Sn1 (Twice )
    SRG1S n1SRn1n1 d1n1Sd1d1 n1d1
    SRG1S n1SRn1n1 srg1mn1d1p
    B |--5-3-------------------------3-5-3-------------
    G |------5-4--2-4-5-4------------------------------
    D |---------------------5-2--2---------------------


    E |----2-3---------2----------0------------------------
    B |--5-----5--3-5----3-3-1-3----1-1--3--1--------------


    E |-----2-3---------2---------------------------------------
    B |--5------5--3-5----3-3-----------------------------------
    G |-----------------------------------7-5-4-----------------
    D |--------------------------2-4-5-7------------------------

    ZINDAGI MEIN KOI BHI KAMI HO
    *p*d1*n1_g1_g1r_*n1_*n1s_*n1*d1
    D |---------5-5-4-----------------------------------
    A |--2-3-5---------5-5-7--5-3----------------------

    PALKON PE JO JARA BHI NAMI HO
    *n1s___r_*n1_s*n1_*m_*d1*d1*n1*d1_*p
    A |--5-7-9--5-7-5----3--3-3-5-3-2--------------------
    e |----------------5-----------------------------------

    AANSOO NA BAHANA TUM DUKH NA UTHANA TUM
    *p*p___s___sss____g1s__*p___s__sss_____g1s
    D |-------2-2-2-2-5-2----2-2-2-2-5-2------------------
    A |--2-2----------------2------------------------------

    HAAR NA JANA DUNIYA SE
    *ps__s__ss___g1g1g1_r
    D |----2-2-2-2--5-5-4----------------------------------
    A |--2--------------------------------------------------

    DARANA KABHI NA TUM REHNA NA GUMSUM
    *p*P___ss____s__g1s_*ps___s___ssg1s
    D |------2-2-2-5-2-----2-2-2-2-5-2---------------------
    A |--2-2-------------2----------------------------------

    HANS KE BATANA DUNIYA SE
    *p___s__sss____g1g1g1m_r
    D |----2-2-2-2--5-5-7-4---------------------------------
    A |--2---------------------------------------------------

    AAYENGE PHIR SE DIN KHUSIYON KE
    psrg1____p___p__m*n1_srmp___m
    G |--4---------4--4--2----------2-4-2---------------------
    D |----2--4-5-----------0-2-4-----------------------------

    BADLEGA YE MAUSAM ............
    g1*d1*n1s_g1_g1mrsrg1rsrg1r
    D |--5---------5--5-7-4-2-4-5-4-2-4-5-4-------------------
    A |-----3-5-7-----------------------------------------------

    IF YOU FIND IT DIFFICULT TO PLAY SONG PLEASE TELL ME AND I WILL

    TRY TO SOLVE YOUR PROBLEM.

  2. #2
    machhindra is offline Newbie
    Join Date
    Mar 2006
    Location
    Thane
    Posts
    1

    Smile hi

    i want these tune i will take it from u
    Mac

 

 

Similar Threads

  1. REQ: You are my sonia of kabhi khushi kabhi gham tabs
    By elvis99 in forum Hindi Guitar Tabs - Submit or Request
    Replies: 7
    Last Post: 09-08-2012, 02:08 AM
  2. Repost- Kabhi khushi Kabhi Gham
    By arsalankhan in forum IGT Soundtrack - Your Band, Your Gig, Your Music
    Replies: 0
    Last Post: 12-25-2006, 09:41 PM
  3. Kabhi khushi Kabhi Gham
    By arsalankhan in forum IGT Soundtrack - Your Band, Your Gig, Your Music
    Replies: 1
    Last Post: 12-25-2006, 01:27 PM
  4. Req:Kabhi Kushi Kabhie Gham
    By na87 in forum Hindi Guitar Tabs - Submit or Request
    Replies: 2
    Last Post: 01-05-2006, 08:48 AM
  5. PLEASE send KABHI KHUSHI KABHI GHAM
    By PassionandLIAR in forum Hindi Guitar Tabs - Submit or Request
    Replies: 4
    Last Post: 05-28-2004, 03:24 AM

Bookmarks

Posting Permissions

  • You may not post new threads
  • You may not post replies
  • You may not post attachments
  • You may not edit your posts
  •  
Single Sign On provided by vBSSO