Follow Us On Follow us on Facebook Follow us on Twitter Watch us on YouTube
Register
Results 1 to 3 of 3
  1. #1
    paresh.tashan is offline Newbie
    Join Date
    Jun 2011
    Location
    Bhubaneswar
    Posts
    2

    Cool Hale dil murder 2....

    Bm.............................A.......G.......... .................A.....
    Hai kaash kaash yun hota har sham saath tu hota
    Bm..........................A.....
    Chup chap dil na yun rota
    G..........................A.......
    Har sham saath tu hota
    Bm...................A.................G.......... ...........A.....
    Guzaara ho tere bin guzaara ab mushkil hai lagta
    Bm.....................A..............G........... .......A......
    Nazaara ho tera hi nazaara ab har din hai lagta
    Bm............................A................... ..........
    Hale dil tujhko sunata dil agar ye bol paata
    G.........................................A....... .............
    Ba khuda tujhko hai chahata jaan aaaaaa
    Bm.................................A.............. ...........................
    tere Saang jo pal bitata waqt se main wo maang lata
    G...............................A............
    Yaad karke muskurata Haan..
    Bm.......A....G.....Bm..A........
    Wo o o o o oooo o o o o o......
    Bm.....A......G......A............
    Wo o o ooooo o o ooooo o o oooo o o o......
    Tu meri raha ka sitara
    Tere bina hoon main awara
    Jab bhi tanhai ne sataya tujko besakhta pukara aaaaaa
    Chahat hai meri la fannah par meri jaan dil mein hoon rakhta
    Bm............................A................... ..........
    Hale dil tujhko sunata dil agar ye bol paata
    G.........................................A....... .............
    Ba khuda tujhko hai chahata jaan aaaaaa
    Bm.................................A.............. ...........................
    tere Saang jo pal bitata waqt se main wo maang lata
    G...............................A............
    Yaad karke muskurata Haan..
    Bm.......A....G.....Bm..A........
    Wo o o o o oooo o o o o o......
    Bm.....A......G......A............
    Wo o o ooooo o o ooooo o o oooo o o o......
    Khawbon ka kab tak loon sahara
    Ab to dua bhi jaa khudara
    Meri ye dono pagal aankhen har pal maange tera nazara aaaa
    Samjhaon inko kis tarah inpe mera bas nahi chalta aaa haan a aaa
    Hale dil tujhko sunata dil agar ye bol paata
    G.........................................A....... .............
    Ba khuda tujhko hai chahata jaan aaaaaa
    Bm.................................A.............. ...........................
    tere Saang jo pal bitata waqt se main wo maang lata
    G...............................A............
    Yaad karke muskurata Haan..
    Bm.......A....G.....Bm..A........
    Wo o o o o oooo o o o o o......
    Bm.....A......G......A............
    Wo o o ooooo o o ooooo o o oooo o o o......

  2. #2
    paresh.tashan is offline Newbie
    Join Date
    Jun 2011
    Location
    Bhubaneswar
    Posts
    2
    PLz check it out and comment .....

  3. #3
    Salil Sardana is offline Newbie
    Join Date
    May 2011
    Posts
    28
    here are the complete chords n tabs in d ORIGINAL SCALE....

    Chords used :
    Am (002210)
    F (133211) 0r (033211)
    C (032010)
    G (355433) or (320033)
    Em (022000)
    E (022100)

    strumming pattern : dd_uudd

    INTRO- plucking on Am & C




    e ----------------- |--------------------|------------------------------------|-----------------
    a -0---------------|---3----------------|------------------------------------|---------------------
    d ---2-------------|------2-------------|-single strum on G(320003)----------|------------------
    g -------------2---|---------------0----|------------------------------------|-----------------
    b ----------1------|------------1-------|------------------------------------|--------------3----
    e --------0--------|----------3---------|------------------------------------|--2-3—2-0------




    e ----------------- |--------------------|----------------------------|------------
    a -0---------------|---3----------------|----------------------------|------------
    d ---2-------------|------2-------------|-----strum F (dudud)-------|---------
    g -------------2---|---------------0----|----------------------------|----------
    b ----------1------|------------1-------|----------------------------|----------
    e --------0--------|----------3---------|----------------------------|--------



    e ----------------- |--------------------|------------------------------------|-----------------
    a -0---------------|---3----------------|------------------------------------|---------------------
    d ---2-------------|------2-------------|-single strum on G(320003)----------|------------------
    g -------------2---|---------------0----|------------------------------------|-----------------
    b ----------1------|------------1-------|------------------------------------|--------------3----
    e --------0--------|----------3---------|------------------------------------|--2-3—2-0------





    e -----------------------------|--------------------------------------
    a ----0------2-3--------3-----|-------------------------------------------
    d ---------------- 000--------|-------strum F (dudud)------------
    g -----------------------------|------------------------------------
    b --------1------------------- |-------------------------------------
    e -----------------------------|-----------------------------------


    repeat this pattern of 4 diagrams 2 times..


    Hai(Am) kaash, kaash yun (F)hota

    Har (G)shaam saath tu (Am)hota

    Chup (Am)chaap dil na yun (F)rotaa

    Har(G) shaam saath tu (Am)hota


    Guzaara ho te(G)re bin gu(F)zaara ab mu(Am)shkil hai la(Em)gta
    Nazaara ho te(G)ra hi na(F)zaara ab ha(Am)r din hai la(Em)gta


    Intro played again but dis time with strumming on d chords used initially for plucking..

    Am
    Hale dil tujhko sunaata
    G
    Dil agar yeh bol paata

    Ba(F)khuda tujhko hai chaahta ja(Em)an

    Am
    Tere sang jo pal bitaata
    G
    Waqt se main woh maang laata

    Ya(F)ad karke muskuraata ha(Em)an


    Woho (Am)ho…hohohoho (G)ho..hohohohoho (F)ho..hohohoho(Em) (x2 times)




    On distortion :

    e –5---578-------------------------------------------------------------------------
    a ------------10---9-10--957----------------------------------------------------- (x2 times)


    1st verse-

    (Am)Tu meri ra(C)ah ka sit(G)aara

    (F)Tere bina hoon main aw(E/Em)aara

    (Am)Jab bhi (C)tanhai ne sat(G)aaya

    (F)Tujhko besaakhta puk(E/Em)aara

    Aa(F) chaahat hai meri la fa(G)naa

    Par meri ja(Am)an (C)dil mein hoon rak(E/Em)hta haan


    On distortion :

    e –5---578-------------------------------------------------------------------------
    a ------------10---9-10--957----------------------------------------------------- (x2 times)



    2nd verse (same as 1st verse)-

    (Am)Khwaabon (C)ka kab tak loon sah(G)ara

    (F)Ab toh tu aa bhi ja khud(E/Em)ara

    (Am)Meri (C)yeh dono paagal aan(G)khein

    (F)Har pal maange tera naza(E/Em)ara

    Aa(F) samjaun inko kis ta(G)rah

    Inpe me(Am)ra (C)bas nahin chal(E/Em)ta haan


    Am
    Hale dil tujhko sunaata
    G
    Dil agar yeh bol paata

    Ba(F)khuda tujhko hai chaahta ja(Em)an

    Am
    Tere sang jo pal bitaata
    G
    Waqt se main woh maang laata

    Ya(F)ad karke muskuraata ha(Em)an


    Woho (Am)ho…hohohoho (G)ho..hohohohoho (F)ho..hohohoho(Em) (x2 times)

 

 

Similar Threads

  1. Hale Dil - Murder 2 - Guitar Chords
    By ramshengale in forum Hindi Guitar Tabs - Submit or Request
    Replies: 4
    Last Post: 06-16-2011, 09:35 PM
  2. hale dil (acoustic) CHORDS N TABS (COMPLETE)- murder 2
    By Salil Sardana in forum Hindi Guitar Tabs - Submit or Request
    Replies: 0
    Last Post: 06-11-2011, 07:54 PM
  3. Murder Mystery 2
    By rockboyteek in forum The ChitChat Lounge
    Replies: 12
    Last Post: 01-20-2005, 09:03 PM
  4. Murder Mystery
    By rockboyteek in forum The ChitChat Lounge
    Replies: 16
    Last Post: 01-19-2005, 09:12 PM
  5. Req: Murder
    By DesiPride143 in forum Hindi Guitar Tabs - Submit or Request
    Replies: 1
    Last Post: 04-20-2004, 01:27 PM

Bookmarks

Posting Permissions

  • You may not post new threads
  • You may not post replies
  • You may not post attachments
  • You may not edit your posts
  •  
Single Sign On provided by vBSSO