Follow Us On Follow us on Facebook Follow us on Twitter Watch us on YouTube
Register
Page 4 of 4 FirstFirst ... 234
Results 46 to 59 of 59
  1. #46
    sachuvinayan is offline Newbie
    Join Date
    Feb 2012
    Posts
    3
    my mail id is sachuvinayan@gmail.com

  2. #47
    shajifire00 is offline Newbie
    Join Date
    Feb 2012
    Location
    kuwait
    Posts
    1
    hai dear sanjeev,

    will you help to get guitar tabs for Rari rariram raro-onnu muthal poojyam vare..

    with regards
    shaji.

  3. #48
    shravanbraj is offline Newbie
    Join Date
    Apr 2011
    Posts
    1
    i want madhurakinavin
    pls forward to me

  4. #49
    ipad is offline Newbie
    Join Date
    Aug 2012
    Posts
    1
    please mail me the guitar tabs u have

    my email id is ipad8909@gmail.com

  5. #50
    sanjeevbabu's Avatar
    sanjeevbabu is offline Newbie
    Join Date
    Oct 2004
    Posts
    35
    Hi friends,
    I could not follow up the conversations because i was absent from guitartabs for a long time because of the demise of my wife. Now i am back and active here.
    pls listen to my songs in youtube (search sanjeevbabu) and if you want any help please mail me at sanjeevbabukp@gmail.com
    thanks for your support.

  6. #51
    sanjeevbabu's Avatar
    sanjeevbabu is offline Newbie
    Join Date
    Oct 2004
    Posts
    35
    i could not come to this site for the last few years because of some reasons beyond my control. Now I am back and you can request me songs.

  7. #52
    sanjeevbabu's Avatar
    sanjeevbabu is offline Newbie
    Join Date
    Oct 2004
    Posts
    35
    Rari rariram raro
    E .................................................. ..............................5...
    B 5..6..3..5..6..5..3..5..3............5..6..3..5..6 ..5..3..5..3..3........

    E..........................5...................... ..................5.........
    B.3..6..5..6.....5..6......5..5....... 3..6..5..6.....5..6......5..5..

    E.............3/5..6..8..6..6...6/10..9....
    B..3..5..6........

    E....12..13........10..12..10.........12..13...... ..10..12..10.....
    B...............10.................10............. ..10.................10

    E................................................. .....................
    B..10..11.......5..6..5........10..11.......5..6.. 5.......
    G.............7..............7...............7.... ..........7....

    E..5..5..4..5..5.........5..5..4..5....5.....5/8..10..8.........................
    B...................6..6.......................... ................10..10..9..9..10...

    E........9..10..9........9..10..10h12..10...12.... .........13..13..12..10..9..12..10..
    B..10...............10............................ ......10..10...................................

    E..10p9..12/10..8..7..8..8p7..10/8..6..5..6....5..4..6..5..........................
    B................................................. ........................6..6..5....5..6..5..3

  8. #53
    sanjeevbabu's Avatar
    sanjeevbabu is offline Newbie
    Join Date
    Oct 2004
    Posts
    35
    Rari rariram raro
    E .................................................. ..............................5...
    B 5..6..3..5..6..5..3..5..3............5..6..3..5..6 ..5..3..5..3..3........

    E..........................5...................... ..................5.........
    B.3..6..5..6.....5..6......5..5....... 3..6..5..6.....5..6......5..5..

    E.............3/5..6..8..6..6...6/10..9....
    B..3..5..6........

    E....12..13........10..12..10.........12..13...... ..10..12..10.....
    B...............10.................10............. ..10.................10

    E................................................. .....................
    B..10..11.......5..6..5........10..11.......5..6.. 5.......
    G.............7..............7...............7.... ..........7....

    E..5..5..4..5..5.........5..5..4..5....5.....5/8..10..8.........................
    B...................6..6.......................... ................10..10..9..9..10...

    E........9..10..9........9..10..10h12..10...12.... .........13..13..12..10..9..12..10..
    B..10...............10............................ ......10..10...................................

    E..10p9..12/10..8..7..8..8p7..10/8..6..5..6....5..4..6..5..........................
    B................................................. ........................6..6..5....5..6..5..3

  9. #54
    sanjeevbabu's Avatar
    sanjeevbabu is offline Newbie
    Join Date
    Oct 2004
    Posts
    35
    sukhamo devi
    E................................................. .................................................. ...............................1.........
    B................................................. .................................................. ...............1..3..1.. 3......4..
    G................................................. ..............................0..1..............0. .1..3...............................
    D.......................0..1...................... .............0..1...3...............3............. ..................................
    A........0...2..3.............3................... ......3........................................... ................................
    E...3............................................. .................................................. .....................................




    E................................................. .................................................. .
    B.......4....3.................................... .................................................. ...
    G...................3..2.......................... .................................................. ...
    D.............................3..2..1............. .................................................. ....
    A................................................. .................................................. .
    E................................................. .................................................. .

    repeat according to the original song




    E................................................. .................................................. ..............................3....
    B.......1....3....1....3....0..................... ................0...1..1h3...........0..1..3..4.4. .4..4h6.............
    G.....................................0........... ............0..................................... ..........................
    D...........................................3..... ...3.............................................. ................................
    A................................................. .................................................. .....................
    E................................................. .................................................. .





    repeat

    E................................................. .................................................. .............
    B........6p4....6.........4p3....3....3........... .4..........4...........3......................... ........
    G................................................. ......5.......5...........4..........4......4..... .......
    D................................................. ..............................................
    A................................................. .................................................. .
    E................................................. .................................................. .






    repeat
    E................................................. .................................................. ...................repeat
    B.............4............4...................... .................................................. ...............
    G.......5..........5...........5......4........... .....................0..0..0...........0....1....1 ...0....
    D...............................................5. ....3/1......1h3.................3...................
    A................................................. .................................................. .
    E................................................. .................................................. .

    repeat song

  10. #55
    sanjeevbabu's Avatar
    sanjeevbabu is offline Newbie
    Join Date
    Oct 2004
    Posts
    35
    o mridule
    O ......Mri du le
    E...3h5....3/8....................
    B......................10.....8/6

    Hridaya mura liyi lozhuki vaa
    E................................5................ .........
    B....5........5.........5..........5.............. .....
    G........7..........7.....................7..7..7. .7..
    Yaa mi ni than, madiyil mayangumee
    E....5/7....7/10..10h12....10/8..7..8.10..7..8...10..7

    B

    Chandrikayi lali yaam

    E....5......5...5..5..3..8..5........

    B......................................8/5

    Manasum manasumaayi chernnidaam) (x2)
    E..............................5.................. .........

    B...5...3....5...3..5.........5.........3..3..3... .
    Akale yaanenkilum dhan ye

    E.................5/10..10..10..10..12p10...9..

    B.....8..6..8..

    Nin swaram, oru thenga laayennil nirayum

    E...9/5..5..5/9...............5/10..10.8/5......................

    B...........................6..8.................. .....8/6..6.8..6..5
    ((O Mridule

    ( as above)

  11. #56
    sanjeevbabu's Avatar
    sanjeevbabu is offline Newbie
    Join Date
    Oct 2004
    Posts
    35
    Go pura muka lil
    E...7/10...10..10...10...10...
    B........................................12..10..8

    va santha chan dran
    E............5/7..7.....5..7...........

    B..8.................................8h10
    go ro chana kuri ...varachu Sa ghi
    E...8h10..7h8...5..5....7p5....................... ..........5..7p5

    B.........................................8....8.. 8..8.........8...
    go ro chana kuri varachu
    E...8h10..7h8...5..5......7p5..................... ...........

    B.........................................8....8.. 8..8....

    Am....bala ...mu...ttathe ..althaara veendum
    E................................................. .........5...........5...5.......

    B....8/5......5..5......5.....5.......5.....5/8........8......
    Anthi ni lavil ............. ...kulichu............
    E..5/8...8..8......7..8p7....5..7p5................5... ..5.7p5

    B................................................. ...8..8...

    Am....bala ...mu...ttathe ..althaara veendum
    E................................................. .........5...........5...5.......

    B....8/5......5..5......5.....5.......5.....5/8........8......
    Anthi ni lavil ............. ...kulichu............

    E..5/8...8..8......7..8p7....5..7p5................5... ..5.7p5..5...5..7..8

    B................................................. ...8..8...

    (gopura mukalil)



    Pra da kshi na vazhi yil va che nte de van
    E10....10....10...10...10..10..12p10....10....10.. ..10...10...10..10..12p10....


    Prathyksha na................................yi saghi
    E...7.....7....8..........10h12 ...10/8/12..13p12/10..................

    B................................................. .........................13..12...13
    A van prathyakshana....................... yi saghi
    E....8h10..8h10.......7..7..8......10/12...15p12..15p12................

    B................................................. .................................13..12...13
    Varamonnum thannilla uriyadan vanilla
    E....7..7..7...7.......7..6..7...8.8..8.8...8..8.. 8..


    Para yathe ... entho paranju avan
    E...............8/5/8...
    B....10..10.............10.8/6...6h8...6..5..5.....5...5..
    Para yathe ... entho paranju
    E..................3/8..7.....

    B.....5.h6........................8..6............ ...8...8..8.

    (gopura mukalil)

  12. #57
    sanjeevbabu's Avatar
    sanjeevbabu is offline Newbie
    Join Date
    Oct 2004
    Posts
    35
    Nee madhu pakaroo..malar choriyoo
    Nee madhu pakaroo..malar choriyoo
    E 2...................2...2...................2.2... ......
    B..........3....3.............5.......3..3........ .....5........
    Anuraaga pournamiye........
    E...........5...........................
    B....5..5......8...7..5..7..8....7....
    Nee maayalle....marayalle....
    E...........10.10.10....
    B...10.........................10..10..10..10.
    neela nilaavoliye
    E..........................................
    B...8..8...8...8..7..5.........

    (Nee madhu)

    Manivilakkuvenda mukil kaanenda
    E....10..9..7..7..10.10.10....10..9..7..10..10

    ee pre...ma .... sallapam
    E....10..9...7..9..10..10..9..12..9...
    Kali paranjirikke kili thudangiyallo
    E....9..7..............9..9..9...9..7............. .9..9..9..
    B.............10.10.......................10..10..
    salla........pa... sangeetham ........
    E....9..7..9..10..9.. 7........7.......
    B................................10......10..10..8 ..7

    Iru karalukalil virunnu vannu
    E 2...................2...2...................2.2... ......
    B..........3....3.............5.......3..3........ .....5........
    maayatha madhumaasam
    E...........5...........................
    B....5..5......8...7..5..7..8....7....
    Nee maayalle....marayalle....
    E...........10.10.10....
    B...10.........................10..10..10..10.
    neela nilaavoliye
    E..........................................
    B...8..8...8...8..7..5.........

    (Nee madhu)

  13. #58
    sanjeevbabu's Avatar
    sanjeevbabu is offline Newbie
    Join Date
    Oct 2004
    Posts
    35
    Olikkunnuvo ...............................mizhikumbilil
    E................................................. ...............................................
    B...................
    G.......5....8..7..8....7h8.p75h7p5.3....3.3....5. 5..5.........
    D...5............................................. ........................................
    oraayiram ...................................kalithumbikal
    E................................................. ..............................................
    B................................................. .................................
    G...5....5/8..7..8....7h8.p75h7p5.3.......3.3....5.5..5...... ...
    D................................................. .......................................
    Chiri ......chippi chorumn ilam ..... mottilonne
    E........8p5....5...5....5.....5....5..6h8......6p 5..3..3..3.........
    B....6............................................ .............
    G...............
    D................................................. ......................................
    Koruthullu chundil maappu nee tharu tharu tharu
    E...................................
    B.....6h8..8..6..4...4.......4..3.....4....3...4.. ...3...4..3..4/8.....
    G.......
    D................................................. .......................................
    (Olikkunnuvo.. kalithumbikal)

    Payippatte odi valla mayoren
    E................................................. 10.8/6....................
    B..........8...8...8...8/10.11.10..11..............9p8
    G...5............................................. .................
    D................................................. .......................................
    mohakkayal modi vallamanu nee (2)

    E..............................................8.. .......
    B......6..6..6..6....6.h 8...9.8..9........11/9..8/6
    G..............
    D.......

    Muzhakkolu polum kooda......thennee ninne njan..
    E................3..6..6p3..3/8..8/3.3/10.10/3..3/11.8h10.8..8p6.3/8B.....4.h6...
    ..
    Alannittu penne ennod enthanee bhavam
    E................3..6..6p3..3/8..8/3.3/10.10/3..3/11.8h10.8..8p6.3/8B.....4.h6...
    Minungunnoren nunungolame
    E......7..8..8/10..8..6p3.................6..............
    B.......................................6h8..8.... .8...4.3.1
    (Olikkunnuvo.. kalithumbikal)

  14. #59
    sanjeevbabu's Avatar
    sanjeevbabu is offline Newbie
    Join Date
    Oct 2004
    Posts
    35
    mazhanila kulirumayi(vikramdithyan)

    Mazha ni la kuli rumay Venal thooval vishum
    E-----8----6--------------8------6--------------------------------------
    B--6----------9/6------6-------------9/6----5--6/8---6/5-------------
    G------------------------------------------------------------6/5---6---5


    Mozhi yilum madhu ramay Mounam kathaparayum
    E-----8----6--------------8------6--------------------------------------
    B--6----------9/6------6-------------9/6---5---6/8---6/5-------------
    G-------------------------------------------------------------6/5--6---5


    Poonkaatin vazhiye varathe Kattin kulir ari yum
    E-----8----8----6--8--6-----------------11---9--11-9----8------------
    B--5-----------------------8--9-9-----------------------11--------------
    G-------------------------------------8-----------------------------------


    Etho suga me nenjil nirayum
    E------------------------------------------------------8-6--8-------------
    B--9/11--11/13----------8--6/8-9--------8-----------------6-----------
    G---------------------10----------------5---------------------------------


    Mazha ni la kuli rumay
    E-----8----6--------------8------6--------------------------------------
    B--6----------9/6------6-------------9/6-------------------------------
    G------------------------------------------------------------------------

    Manju pookan ma ran ......... ............na swapnam
    E-----6/8-8--8--8--8---8---6/8--11/10--13/11---9------8----8---
    B--------------------------------------------------------------------------
    G--------------------------------------------------------------------------
    Kan .......nil.. than...........gum paka luka lil
    E----6/8/4-----6/8/4-----6/8/4-------6/8/4----4/6----------------------
    B--------------------------------------------------------8--8/9-6---6------
    G--------------------------------------------------------------------------
    Kannadachalum ullil ......................... aro
    E-----6/8-8--8--8--8---8---6/8--11/10--13/11---9------8----8---
    B--------------------------------------------------------------------------
    G--------------------------------------------------------------------------
    Ra..............gam .....paa...........dum ira vuka lil
    E----6/8/4-----6/8/4-----6/8/4-------6/8/4----4/6------------------
    B-------------------------------------------------------8--8/9-6---6------
    G--------------------------------------------------------------------------


    Malarukal poo ka....the Malarilum maa tode
    E-----------8--11----10/11--8/6---------------6/10--9/10----------------
    B----8--9---------------------------9-----6--9----------------11/9--8-----
    G--------------------------------------------------------------------------



    Hridayamariyum puthiya mridula gandham
    E-------------------------------------------------------------------------
    B----8--9------8--9-----8--9-------8--9---------------------------------
    G-----------10------10--------8-----------8---10/6--8/10----------


    Mazha ni la kuli rumay Venal thooval vishu
    E-----8----6--------------8------6--------------------------------------
    B--6----------9/6------6-------------9/6----5--6/8---6/5-------------
    G------------------------------------------------------------6/5---6---5




    Chirakil allathe nammal Neela
    E-----6/8-8--8--8--8---8---6/8--11/10--13/11---9------8----8---
    B--------------------------------------------------------------------------
    G--------------------------------------------------------------------------
    kaa sham poo kum chila nimisham
    E----6/8/4-----6/8/4-----6/8/4-------6/8/4----4/6------------------
    B------------------------------------------------------8--8/9-6---6------
    G--------------------------------------------------------------------------
    Chillu kannadi nookum ninnil
    E-----6/8-8--8--8--8---8---6/8--11/10--13/11---9------8----8---
    B--------------------------------------------------------------------------
    G--------------------------------------------------------------------------
    Nin ne kaa num chila nimisham
    E----6/8/4-----6/8/4-----6/8/4-------6/8/4----4/6------------------
    B------------------------------------------------------8--8/9-6---6------
    G--------------------------------------------------------------------------


    Malarukal poo ka....the Malarilum maa tode
    E-----------8--11----10/11--8/6---------------6/10--9/10----------------
    B----8--9---------------------------9-----6--9----------------11/9--8-----
    G--------------------------------------------------------------------------



    Hridayamariyum puthiya mridula gandham
    E-------------------------------------------------------------------------
    B----8--9------8--9-----8--9-------8--9---------------------------------
    G-----------10------10--------8-----------8---10/6--8/10----------


    Mazha ni la kuli rumay Venal thooval vishu
    E-----8----6--------------8------6--------------------------------------
    B--6----------9/6------6-------------9/6----5--6/8---6/5-------------
    G------------------------------------------------------------6/5---6---5
    E-----6/8-8--8--8--8---8---6/8--11/10--13/11---9------8----8---
    B--------------------------------------------------------------------------
    G--------------------------------------------------------------------------
    Kan .......nil.. than...........gum paka luka lil
    E----6/8/4-----6/8/4-----6/8/4-------6/8/4----4/6------------------
    B------------------------------------------------------8--8/9-6---6------
    G--------------------------------------------------------------------------
    Kannadachalum ullil ......................... aro
    E-----6/8-8--8--8--8---8---6/8--11/10--13/11---9------8----8---
    B--------------------------------------------------------------------------
    G--------------------------------------------------------------------------
    Ra..............gam .....paa...........dum ira vuka lil
    E----6/8/4-----6/8/4-----6/8/4-------6/8/4----4/6------------------
    B------------------------------------------------------8--8/9-6---6------
    G--------------------------------------------------------------------------


    Shankille kadal pole Nenjile anuragam
    E-----------8--11----10/11--8/6---------------6/10--9/10----------------
    B----8--9---------------------------9-----6--9----------------11/9--8-----
    G--------------------------------------------------------------------------



    Alakal illaki uyirum thazhuki neram
    E-------------------------------------------------------------------------
    B----8--9------8--9-----8--9-------8--9---------------------------------
    G-----------10------10--------8-----------8---10/6--8/10----------


    Mazha ni la kuli rumay Venal thooval vishu
    E-----8----6--------------8------6--------------------------------------
    B--6----------9/6------6-------------9/6----5--6/8---6/5-------------
    G------------------------------------------------------------6/5---6---5



    Poonkaatin vazhiye varathe Kattin kulir ari yum
    E-----8----8----6--8--6-----------------11---9--11-9----8------------
    B--5-----------------------8--9-9-----------------------11--------------
    G-------------------------------------8-----------------------------------


    Etho suga me nenjil nirayum
    E------------------------------------------------------8-6--8-------------
    B--9/11--11/13----------8--6/8-9--------8-----------------6-----------
    G---------------------10----------------5---------------------------------


    Mazha ni la kuli rumay
    E-----8----6--------------8------6--------------------------------------
    B--6----------9/6------6-------------9/6-------------------------------
    G------------------------------------------------------------------------

 

 
Page 4 of 4 FirstFirst ... 234

Similar Threads

  1. malayalam songs (tabs)
    By Meshy360 in forum Hindi Guitar Tabs - Submit or Request
    Replies: 5
    Last Post: 05-04-2015, 08:16 PM
  2. Malayalam Songs - Tabs ..... Unlimited
    By sachinks1985 in forum Tamil Guitar Tabs - Submit or Request
    Replies: 10
    Last Post: 07-12-2013, 01:03 PM
  3. Thmbi Vaa Malayalam song-Tabs
    By Edatharam in forum Tamil Guitar Tabs - Submit or Request
    Replies: 21
    Last Post: 12-18-2011, 07:38 PM
  4. tabs for old malayalam songs
    By sanjeevbabu in forum Tamil Guitar Tabs - Submit or Request
    Replies: 6
    Last Post: 10-16-2008, 10:22 PM
  5. New malayalam songs tabs
    By Meshy360 in forum Tamil Guitar Tabs - Submit or Request
    Replies: 0
    Last Post: 08-25-2008, 03:21 PM

Bookmarks

Posting Permissions

  • You may not post new threads
  • You may not post replies
  • You may not post attachments
  • You may not edit your posts
  •  
Single Sign On provided by vBSSO