Follow Us On Follow us on Facebook Follow us on Twitter Watch us on YouTube
Register
Results 1 to 12 of 12
  1. #1
    VisOrchestraGrp is offline Pro Tabber
    Join Date
    Oct 2006
    Posts
    432

    Smile Ek din teri raahon mein : Naqaab

    Req. By - Bhootmahal

    Movie - Naqaab

    Notes in ( ) shows slide .


    INTRO -
    E |-------1--0-1--1-1--0-1--------------
    B |---------------------------------------
    G |--2------------------------------------
    REPEAT TWICE


    E |-------0---------0-----0-0-------0-----
    B |------------3-----------------3--------
    G |--0-------------------------------------


    E |------0-------0---||----0-0-------0----
    B |----------3-------||----------3---------
    G |--0---------------||Either play these notes after || or play SAXOPHONE PART .


    NOTE :- If you want to play Saxaphone part replace last E |--0 with B|--5 .


    SAXOPHONE PART .....
    E |--8-6-5-3------6-5-3--------------
    B |------------6-----------6-5--------


    E |-------1--0-1--1-1--0-1-------------
    B |-------------------------------------
    G |--2----------------------------------
    REPEAT TWICE


    E |-------0--------0-----0-0--------0----
    B |------------3----------------3---------
    G |--0------------------------------------


    E |-------0--------0--0-0--0-1-0-------0----
    B |------------3--------------------3--------
    G |--0---------------------------------------


    ......Ek.......din
    E |--1-0----1----------------------------------


    ......Ek.......din....teri.....raahon..mein
    E |--1-0----1-----1-1----1-0-----------------
    B |----------------------------------3---------


    ......Baahon....mein....panahoan.....mein
    E |------1------1-------1-1-0----------------
    B |-------------------------------------0-----
    G |--2----------------------------------------


    ......Aaonga....kho.....jaaonga
    E |-----1-0-----0----------1-0-----------
    B |--3------------------3------------------


    ......Ek......din....tera....ho.....jaaonga
    E |--0-1-----------------------------------
    B |----------3----3-3----------------------
    G |------------------------3-----5-3-2----


    2=================================================


    ......Ek.......din....teri.....raahon..mein
    E |--1-0----1-----1-1----1-0-----------------
    B |----------------------------------3---------


    ......Baahon....mein....panahoan.....mein
    E |------1------1-------1-1-0----------------
    B |-------------------------------------0-----
    G |--2----------------------------------------


    ......Aaonga..............kho....jaaonga
    E |-----1--(1-3)--0----0----------1--(1-3)--0-----
    B |--3-------------------------3--------------------


    ......Ek.......din....tera.....ho....jaaonga
    E |--0-1--------------------------------------
    B |----------3-----3-3-----------------------
    G |-------------------------3-----5-3-2-----

    ==================================================


    ......Ye.......dil....to.........na.........Keh... .saka........ye......baatein
    B |--3-5----6----(5-3)----(3-5)----3-------1-1-3-------------------------
    G |-------------------------------------------------------2-0----0-2--------


    ......Dil.....to.....na.........keh....saka
    E |--1------1----(1-3)-----------------------------------------------------
    B |-------------------------5---------3-------------------------------------
    G |--------------------------------5----------------------------------------


    ......Ye.......dil....to.........na.........Keh... .saka........ye......baatein
    B |--3-5----6----(5-3)----(3-5)----3-------1-1-3-------------------------
    G |-------------------------------------------------------2-0--------0-2----
    D |---------------------------------------------------------------3----------


    ......Dil.....to.....na.........keh....saka
    E |--1------1----(1-3)-----------------------------------------------------
    B |-------------------------5---------3-------------------------------------
    G |--------------------------------5----------------------------------------


    STANZA :-

    ......Tu.....jaane....na....tu
    B |--1-----1-3------3-----1----------------------------------------------


    ......Chaahat....meri....kitni.....betaab......hai
    B |--1-3-----------------6-5---------------------------------------------
    G |--------------4-5--------------3-5-3------2--------------------------


    ......Ho.......Jo....barso....meri...Palko...mein. tha
    B |----------1----1-3------3-1----1-3-----------------------------------
    G |--2-3------------------------------------4------5---------------------



    ......Tu....wahi......khawab....hai
    B |--6----5--------------------------------------------------------------
    G |----------3------5-3--------2-----------------------------------------


    ......Har....ghadi....teri....yaadon....mein
    SAME AS EK DIN LINE MARKED AS 2================


    ......Vaadon....mein....iraadon....mein
    SAME AS LINE BAAHON MEIN PANAHON MEIN AAONGA MARKED AS 2=======



    ......Ek.......din....teri.....raahon..mein
    E |--1-0----1-----1-1----1-0-----------------
    B |----------------------------------3---------


    ......Baahon....mein....panahoan.....mein
    E |------1------1-------1-1-0----------------
    B |-------------------------------------0-----
    G |--2----------------------------------------


    ......Aaonga..............kho....jaaonga
    E |-----1--(1-3)--0----0----------1--(1-3)--0-----
    B |--3-------------------------3--------------------


    ......Ek.......din....tera.....ho....jaaonga
    E |--0-1--------------------------------------
    B |----------3-----3-3-----------------------
    G |-------------------------3-----5-3-2------


    STANZA 2 :-

    ......Ye....jhukti...nazar
    B |--1----1-3--------------------------------------------------------
    G |----------------4-5-----------------------------------------------


    ......Jaane....jigar.....hosh....le....jaati...... hai
    B |-----3--------------6-5-------------------------------------------
    G |--5--------4-5--------------3----5-3-------2----------------------


    ......Ho.........Ye....jhukti.....nazar
    E |--1-0-1----------1-0------1---------------------------------------
    B |------------1------------------1-----------------------------------


    ......Jaane.....jigar......hosh....le....jaati.... ....hai
    E |--1-0------1---------1-0-----------------------------
    B |---------------1-------------------------------------
    G |------------------------------3----(3-5)-3----2------


    ......Main....kaise....kahoon
    E |----------1-0-----1-------------------------------------
    B |--1------------------1-----------------------------------


    ......Ek.....ajnabi.....dard....de.....jaati...... hai
    E |--1-----0-1-------1-0--------------------------------
    B |-------------1----------------------------------------
    G |----------------------------3-----5-3-------2---------

    ......Chupke....se
    SAME AS EK DIN LINE

    ......Chupke se teri neendon mein
    SAME AS EK DIN TERI RAAHON MEIN LINE

    Khawbon mein khayaalon mein chaaonga
    SAME AS BAAHON MEIN PANAHON MEIN.....AAONGA LINE

    ......Kho....jaaonga
    E |--5------3--------3------------------------------------
    B |------------6--6-----5---------------------------------



    Later :-

    ......Dil.....to....na........keh....saka
    E |--------------5-3------------------------------------
    B |--6-----6-------------5---------3--------------------
    G |------------------------------5-----------------------

  2. #2
    VisOrchestraGrp is offline Pro Tabber
    Join Date
    Oct 2006
    Posts
    432
    Second Verson - ( Using more strings ) Notes are same .

    Notes in ( ) shows slide .

    INTRO -

    B |------6--(5-6)--6-6--5-6---------
    G |-----------------------------------
    D |--7--------------------------------
    REPEAT TWICE


    B |-------5--(3-5)--5-5--3-5--------
    G |-----------------------------------
    D |--5--------------------------------


    B |-------5--(3-5)---------------| 5-5--3-5--------
    G |------------------------------- either play above
    D |--5---------------------------- notes of B line after | or play


    SAXOPHONE PART .....

    E |--8-6-5-3------6-5-3-------------
    B |------------6----------6-5--------


    B |------6--(5-6)--6-6--5-6---------
    G |-----------------------------------
    D |--7--------------------------------
    REPEAT TWICE


    B |-------5--(3-5)--5-5--3-5--------
    G |-----------------------------------
    D |--5--------------------------------


    B |-------5--(3-5)--5-5--(5-6-5)-3-5----
    G |-----------------------------------------
    D |--5--------------------------------------


    ......Ek.......din
    B |--6-5----6----------------------------


    ......Ek......din....teri.....raahon....mein
    B |--6-5---6-----6-6----6-5------------------
    G |----------------------------------7---------


    ......Baahon....mein.....panahoan....mein
    B |------6------6--------6-6-5-------------------
    G |-------------------------------------7--------
    D |--7--------------------------------------------


    ......Aaonga...kho....jaaonga
    B |-----6-5----5---------6-5-------------
    G |--7----------------7-------------------


    ......Ek.......din....tera....ho....jaaonga
    B |--5-6----------------------------------------
    G |----------7-----7-7-------------------------
    D |------------------------8----10-8-7--------


    ......Ek......din....teri.....raahon....mein
    B |--6-5---6-----6-6----6-5------------------
    G |----------------------------------7---------


    ......Baahon....mein.....panahoan....mein
    B |------6------6--------6-6-5-------------------
    G |-------------------------------------7--------
    D |--7--------------------------------------------


    ......Aaonga............kho....jaaonga
    B |-----6-(6-8)-5----5---------6-(6-8)-5----
    G |--7-----------------------7-----------------


    ......Ek.......din....tera....ho....jaaonga
    B |--5-6----------------------------------------
    G |----------7-----7-7-------------------------
    D |------------------------8----10-8-7---------


    ......Ye.......dil....to..........na
    B |-----5----6----(5-3)----(3-5)------------
    G |--7----------------------------------------


    ......Keh.....saka......ye...........baatein
    G |--7------5-5-7-----------------------------
    D |--------------------(7-5)-----(5-7)---------


    ......Dil....to.....na.........keh....saka
    B |--6-----6----(6-8)----5--------------------
    G |-------------------------------5-7----------


    ......Ye.......dil....to..........na
    B |-----5----6----(5-3)----(3-5)------------
    G |--7----------------------------------------


    ......Keh.....saka......ye...........baatein
    G |--7------5-5-7-------------------------------
    D |--------------------(7-5)------3-(5-7)-------


    ......Dil....to.....na.........keh....saka
    B |--6-----6----(6-8)----5--------------------
    G |-------------------------------5-7----------


    STANZA :-

    ......Tu....jaane...na....tu
    G |--5----5-7-----7-----5--------------------------


    ......Chaahat....meri....kitni....betaab....hai
    B |-----3----------------6-5------------------------
    G |--5-----------4-5------------3-5----------------
    D |------------------------------------8----7-------


    ......Ho........jo......barso....meri....palko.... mein....tha
    B |---------------------------------------3---------------------
    G |-----------5-----5-7------7-5-----5---------4-------5-----
    D |--7-8--------------------------------------------------------


    ......Tu.....wahi......khawab.....hai
    B |--6-----5---------------------------------------------------
    G |-----------3------5-----------------------------------------
    D |---------------------8--------7------------------------------


    ......Har....ghadi....teri....yaadon....mein
    SAME AS EK DIN LINE


    ......Vaadon....mein....iraadon....mein
    SAME AS LINE BAAHON MEIN PANAHON MEIN


    STANZA 2 :-

    ......Ye....jhukti....nazar
    B |-----------8-----------------------------------------
    G |--5----5--------4-5---------------------------------


    ......Jaane.....jigar....hosh.....le....jaati..... hai
    B |-----3--------------6-5------------------------------
    G |--5--------4-5--------------3----5------------------
    D |-------------------------------------8------7--------


    ......Ho............ye....jhukti....nazar
    B |--6-5-6------------6-5------6------------------------
    G |--------------5-----------------5---------------------


    ......Jaane.....jigar.....hosh....le....jaati..... ...hai
    B |--6-5------6--------6-5-----------------------------
    G |---------------5-------------3----(3-5)-------------
    D |------------------------------------------8----7-----


    ......Main....kaise....kahoon
    B |----------6-5-----6----------------------------------
    G |--5-------------------5------------------------------


    ......Ek.....ajnabi......dard....de....jaati...... hai
    B |--6-----5-6--------6-5------------------------------
    G |--------------5-------------3-----5------------------
    D |--------------------------------------8-----7--------


    ......Chupke....se
    SAME AS EK DIN LINE


    ......Chupke se teri neendon mein
    SAME AS EK DIN TERI RAAHON MEIN LINE


    Khawbon mein khayaalon mein chaaonga
    SAME AS BAAHON MEIN PANAHON MEIN.....AAONGA LINE


    ......Kho....jaaonga
    E |--5------3--------3---------------------------------
    B |------------6--6-----5------------------------------


    Later :-

    ......Dil....to....na......keh....saka
    E |-------------5-3-----------------------------------
    B |--6----6------------5------------------------------
    G |----------------------------5-7--------------------

  3. #3
    gagan_bhatti is offline Newbie
    Join Date
    Apr 2008
    Posts
    1

    Req Kya mujhe pyaar hai

    Hey could you plz gimme the guitar tabs of Kya mujhe pyaar hai hai naa......

  4. #4
    VisOrchestraGrp is offline Pro Tabber
    Join Date
    Oct 2006
    Posts
    432
    Hello Gagan ,
    Is this song is from movie WOh LAMHE .

  5. #5
    bhootmahal is offline Newbie
    Join Date
    Jan 2008
    Posts
    29
    Thanks a lot dude!!!!!

  6. #6
    baputheking is offline Newbie
    Join Date
    May 2008
    Posts
    5
    hey thankz man.could u plz give tabs of 'akhon main teri ajab si....'of om shanti om

  7. #7
    VisOrchestraGrp is offline Pro Tabber
    Join Date
    Oct 2006
    Posts
    432
    Ok you will get it soon .

  8. #8
    jinat_18 is offline Newbie
    Join Date
    Jun 2008
    Posts
    2
    thnx a lot for the tabs.
    http://www.movietimes.in/

  9. #9
    makdee's Avatar
    makdee is offline Beginner
    Join Date
    Apr 2007
    Posts
    50
    Please post its Piano notation .
    Thanks in advance .

  10. #10
    dev_go_hel is offline Newbie
    Join Date
    Dec 2008
    Posts
    26

  11. #11
    babadarshan is offline Newbie
    Join Date
    Oct 2010
    Posts
    2
    its awsome.......bt which 1 u will suggest......d 1st one or d 2nd version

  12. #12
    amk
    amk is offline Newbie
    Join Date
    Nov 2010
    Posts
    1
    hi, I am new to this website and learning guitar for last few days ... nowdays I am learning C Scale .. cud pls send me notes in C Scale for hindi song chookar mere manko.. from film yaaran.

    thanks in advance.

    A. Majid Khan

 

 

Similar Threads

  1. EK DIN TERI RAHON from NAQAAB
    By yogeshs in forum Hindi Guitar Tabs - Submit or Request
    Replies: 2
    Last Post: 05-04-2009, 10:38 PM
  2. tab of the song ek din teri yaad mein frm the film naqaab
    By Deeshan in forum Hindi Guitar Tabs - Submit or Request
    Replies: 1
    Last Post: 09-27-2007, 05:03 PM
  3. Hi, need tabs for ek din teri raahon mein from Naqaab
    By aseem.rai in forum Hindi Guitar Tabs - Submit or Request
    Replies: 1
    Last Post: 09-17-2007, 01:59 PM
  4. Chords: Andheri Raahon Mein-Dahek(2006)
    By deb7sk in forum Hindi Guitar Tabs - Submit or Request
    Replies: 1
    Last Post: 06-17-2007, 11:34 AM
  5. Lucky Ali - Anjaane Raahon Mein
    By prash_rocks in forum Hindi Guitar Tabs - Submit or Request
    Replies: 3
    Last Post: 09-11-2005, 02:13 PM

Bookmarks

Posting Permissions

  • You may not post new threads
  • You may not post replies
  • You may not post attachments
  • You may not edit your posts
  •  
Single Sign On provided by vBSSO