Follow Us On Follow us on Facebook Follow us on Twitter Watch us on YouTube
Register
Results 1 to 8 of 8
  1. #1
    VisOrchestraGrp is offline Pro Tabber
    Join Date
    Oct 2006
    Posts
    432

    Smile Do dil mil rahen hain : Pardes

    REQ. BY - The Helper

    Movie - Pardes
    Singer - Kumar Sanu

    Origional scale - A#

    PLEASE NOTE :- s indicates Sa , r indicates Re , g indicates Ga , m indicates
    Ma , p indicates Pa , d indiacates Dha , n indicates Ni of MIDDLE OCTAVE
    while S indicates Sa , R indicates Re , G indicates Ga , M indicates
    Ma , P indicates Pa , D indiacates Dha , N indicates Ni of HIGHER OCTAVE .

    Please also note that r1,g1,d1,n1 R1,G1,D1,N1 are notes (Keys) present in
    the left side of r,g,d,n R,G,D,N while m1 shows note ( Key ) present in the
    right side of m .

    Notes present right below the wording ( Lyrics ).

    INTRO :-

    S p S G S , S G p
    Repeat 10 times

    Do......dil....mil....rahen......hain
    g m___p___d____n1 d p___p d

    Magar.......chupke.......chupke
    g g p_____d n1 d_____p m1 p

    Sabko.....ho......rahi.......hai
    S S_____n d___p d n1__d

    Haan.....sabko......ho......rahi.......hai
    S______S S_____n d___p d n1__d

    Khabar.......chupke........chupke.......Ho........ ...............
    m m d_____d n1 d_____p m1 p____S d p m p g

    MUSIC :-

    S p S G S , S G p
    Repeat 6 times

    Then S once

    STANZA :-

    Saanson....mein.....badi.....bekaraari
    S R_______G_____R S____d p d R

    Aankhon....mein.....kai....ratt....jage
    S R_______G_____R S___n____d n S

    Kabhi......kahin....lagg....jaaye....dil....to.... ................
    S R_____G R____S_____d p____d___G R____G R G R

    Kahin.....phir....dil.....na....lage
    S R_____G R__S____n___d n S

    Apna.....dil.....main....jara....thaam....loon
    d n1 d__n1___d_____d n1__R n1_____p

    Jaadu....ka.....main....isse....naam....doon...... .......
    d n1 d__n1___d_____d n1___R n1____p m g

    MUSIC :-( Before 2nd stanza )

    S p S G S , S G p
    Repeat 6 times

    Then S once

    MUSIC :-( Before 3rd stanza )

    S p S G S , S G p
    Repeat 8 times

    Then S once

    ENDING :-

    Magar....chupke.....chupke
    g g p____d n1 d____p m1 p

    p g s *n1 s p P

    Please note *n1 is Ni of lower octave.

    Tom'row I will post Guitar verson of that song.

  2. #2
    VisOrchestraGrp is offline Pro Tabber
    Join Date
    Oct 2006
    Posts
    432
    *********************GUITAR VERSON***********************
    Movie - Pardes
    Singer - Kumar sanu

    INTRO :-
    B |---------------3------------3-----------------
    G |--3-------3-------3----3----------------------
    D |------3-------------------------3-------------
    Repeat 10 times

    Do dil mil rahen hain Magar chupke chupke

    D |--------3--5-6-5-3-3-5---------3-5-6-5-3-2-3--------
    A |--5-6---------------------5-5-------------------------

    Sabko ho rahi hai Haan sabko ho rahi hai
    G |--3-3-2----------------3--3-3-2----------------------
    D |----------5-3-5-6-5---------------5-3-5-6-5----------

    Khabar chupke chupke Ho........
    G |----------------------------3--------------------------
    D |--------5--5-6-5-3-2-3----------5-3-1-3---------------
    A |--6-6-----------------------------------------5-----------

    MUSIC :-
    B |---------------3------------3-----------------
    G |--3-------3-------3----3----------------------
    D |------3-------------------------3-------------

    Repeat 6 times

    G |--3------------------------------------

    STANZA :-

    Saanson mein badi bekaraari
    B |--------3--------------------------------------
    G |--3-5------5-3-----------5--------------------
    D |------------------5-3-5-------------------------

    Aankhon mein kai ratt jage
    B |--------3--------------------------------------
    G |--3-5------5-3-2-------2-3--------------------
    D |---------------------5---------------------------

    Kabhi kahin lagg jaaye dil to
    B |--------3---------------------------------------
    G |--3-5------5-3-----------7-5--7-5-7-5---------
    D |------------------5-3-5-------------------------

    Kahin phir dil na lage
    B |--------3--------------------------------------
    G |--3-5------5-3-2-------2-3--------------------
    D |---------------------5---------------------------

    Apna dil main jara thaam loon
    G |-------------------------5-----------------------
    D |--5-6-5--5-6-5--5-6-------6-3-----------------

    Jaadu ka main isse naam doon
    G |-------------------------5-----------------------
    D |--5-6-5--5-6-5--5-6-------6-3-----------------
    A |------------------------------------6-5----------

    MUSIC :-( Before 2nd stanza )
    B |---------------3------------3-----------------
    G |--3-------3-------3----3----------------------
    D |------3-------------------------3-------------

    Repeat 6 times

    G |--3------------------------------------

    MUSIC :-( Before 3rd stanza )
    B |---------------3------------3-----------------
    G |--3-------3-------3----3----------------------
    D |------3-------------------------3-------------

    Repeat 8 times

    G |--3------------------------------------

    ENDING :-

    Magar chupke chupke
    D |--------3--5-6-5-3-2-3----------------------------
    A |--5-5----------------------------------------------

    G |------------------------10---------------
    D |--3--------------------------------------
    A |------5------------8---------------------
    e |----------6-4-6--------------------------

  3. #3
    Emperor is offline Newbie
    Join Date
    Oct 2007
    Posts
    11
    Hello ,

    I converted the sa , re , ga tabs into guitar format myself before your this post
    it really sounds good buddy .

  4. #4
    Join Date
    Jan 2008
    Posts
    11
    thankssssssssssssss....!

  5. #5
    sikhareddy is offline Newbie
    Join Date
    Jan 2008
    Posts
    2
    can some one provide mp3 download of this song please

  6. #6
    arvineet is offline Newbie
    Join Date
    Feb 2008
    Posts
    1

    Do Dil - Chords

    Either I'm mildly daft or most of the chords posted here have some discrepancy.. anyways no offense.. I tried putting chords on this track and it works... its definitely not the exact song with all the production and layering but if you wanna play it in a party to sing along /.....these chords will push the button !

    Enjoy

    I'VE TABBED IT ON C

    Strum the chords like you would strum Faith - George Michael or Mona - Craig McLachlin, Should be good enough...

    I've positioned the chords exactly where they should be played,

    Intro
    C
    Gupchup Gupchup Chup Chup oo
    C
    Gupchup Gupchup Chup Chup oo
    C
    Gupchup Gupchup Chup Chup oo
    C
    Gupchup Gupchup Chup Chup oo


    C...................F.......
    Do Dill Mil Ra....he Hain
    .......C........F*..............C.......
    Ma...gar........ Chupke....Chupke

    (X 2 )
    C...................F.....
    Sabko Ho Ra....hi Hai
    .......C...................F....
    Haan Sabko Ho Ra....hi Hai
    ........C.......F............C.......
    Kha...bar....... Chupke Chupke

    C...................F.......
    Do Dill Mil Ra....he Hain
    .......C........F................C.......
    Ma...gar......... Chupke...Chupke


    C.....................................Dm
    ....Saanson Mein Badi Beka...raari.....
    Am.........................F...........C..
    .....Aankhon Mein Ka..ii Rat Ja..ge
    C...............................Dm.....
    ...Kahin Kabhi Lag Jaaye Dil To
    Am................F.............C..
    ......Kahin Phir Dil Na La...ge

    F.......Dm........F....................C.....
    Apnaa Dil Mein.....Zaraa Thaam Loon
    F.......Dm........Am.................F..G7...
    jaadu. Ka Main.....Isay Naam...Doooon
    C...............F.......
    Jaadu Kar Raha Hai
    C...............F.......
    Jaadu Kar Raha Hai
    ....C.....F............C.......
    A..sar......Chupke Chupke

    REPEAT CHORUS

    AND THE REST OF THE SONG FOLLOWS THE SAME PATTERN

    Aise Bhole Bankar Hai Baithe
    Jaise Koi Baat Nahin
    Sab Kuchh Nazar Aa Raha Hai
    Din Hai Ye Raat Nahin
    Kya Hai Kuchh Bhi Nahin Hai Agar
    Honthon Pe Hai Khaamoshi Magar
    Baatein Kar Rahi Hain
    Baatein Kar Rahi Hain Nazar Chupke Chupke

    Do Dil Mile Rahe Hain
    Magar Chupke Chupke

    Kahin Aag Lagne Se Pehle
    Uthta Hai Aisa Dhuaan
    Jaisa Hai Idhar Ka Nazaara
    Vaisa Hi Udhar Ka Samaa
    Dil Mein Kaisi Kasak Si Jagi
    Dono jaanib Barabar Lagi
    Dekho To Idhar Se
    Dekho To Idhar Se Udhar Chupke Chupke

    Do Dil Mile Rahe Hain
    Magar Chupke Chupke
    Sabko Ho Rahi Hai
    Haan Sabko Ho Rahi Hai
    Khabar Chupke Chupke
    Do Dil Mile Rahe Hain
    Magar Chupke Chupke


    OUTRO STRUMMING ON C

    Gupchup Gupchup Chup Chup oo
    Gupchup Gupchup Chup Chup oo
    Magar Chupke Chupke
    Gupchup Gupchup Chup Chup oo
    Gupchup Gupchup Chup Chup oo
    Magar Chupke Chupke
    Ha Haan Chupke Chupke


    * G7 IF U WISH TO BUT IDEALLY F

  7. #7
    ssm
    ssm is offline Newbie
    Join Date
    Jul 2007
    Posts
    28
    Thanks for the chords, will post again after trying them

  8. #8
    marty833 is offline Newbie
    Join Date
    Nov 2010
    Posts
    1
    hiiiiiiiiiiiiii

 

 

Similar Threads

  1. REQ: Pardes - DO DIL MIL RAHE HAIN
    By deepoe in forum Hindi Guitar Tabs - Submit or Request
    Replies: 5
    Last Post: 12-05-2007, 12:33 PM
  2. Hum kis gali ja rahen hain : Doorie Artist : ATIF
    By VisOrchestraGrp in forum Hindi Guitar Tabs - Submit or Request
    Replies: 7
    Last Post: 09-13-2007, 05:20 PM
  3. Submit-Tabs Do Dil Mil Rahen Hain---Pardes
    By upneja in forum Hindi Guitar Tabs - Submit or Request
    Replies: 0
    Last Post: 02-01-2007, 01:46 PM
  4. REQ:do dil mil rahe hain---pardes
    By ahr in forum Hindi Guitar Tabs - Submit or Request
    Replies: 2
    Last Post: 01-07-2006, 08:20 AM
  5. Pardes - Do dil mil rahein hain
    By anujroy in forum Hindi Guitar Tabs - Submit or Request
    Replies: 8
    Last Post: 11-12-2005, 10:15 AM

Bookmarks

Posting Permissions

  • You may not post new threads
  • You may not post replies
  • You may not post attachments
  • You may not edit your posts
  •  
Single Sign On provided by vBSSO