****************WELCOME TO THE DANCE FLOOR****************

MOVIE : WARDAT ( REMEMBER gunmaster G9, FIRST SERIES MOVIE OF INDIA.
another part is SURAKSHA)

SINGER : BAPPI LAHIRI

ORIGIONAL SCALE : G# (Ab)

NOTE :- s indicates SA middle octave while S indicates Sa of higher octave
and so on . Please note that G1 indicates the note that is present on the
left side of G.

DEKHA HAI MAINE TUMHE PHIR SE PALAT KE
GG____G__GG____GS____R____R_SS____S
E |--8-8--8-8-8-8-4--6--6--4-4--4-------------

LALA LALA LALA LALA LALA LA LA
PP___PP___PP__PP___DD__D__P (You can also use Ab and Db chords here)
E |--11*--13-13-13-11------------------------( * IS ud STROKE )

TUMMAI HAI BAAT KOI AURON SE HATT KE
GG_____G___GG__GS__RR____R__SS___S
E |--8-8--8-8-8-8-4--6--6--4-4--4--------------

AAJ TUMSE MULAQAT HO GAI DIL MEIN JO THI WAHI BAAT HO GAI
RG1_RSSd__dSRG1___R__SS (REPEAT TWICE )
E |--6--7--6--4-4--1--1--4--6--7--6--4-4-----------

KISI SE DIL LAGA LIYA .......
SR__S__G__RM__GP
E |--4--6---4--8---6--9---8--11--------------

HAI HAI HAI HAI
G# (Ab) CHORDS 4 TIMES

STANZA :--------
HOTA YAHI SABHI KA SAPNA
pS___nS___SS___S__nSR
E |-----4--3-4---4-4-4---3-4-6---------------
B |--4----------------------------------------

MILAY KOI JO BANN JAYE APNA
pn____dn_n__nn___np___dnS
E |-----3--1--3-3--3-3-3----1-3-4------------
B |--4--------------------4-------------------

KAHNE KO TO DUNIYA HAI APNI
(SAME AS AAJ TUMSE MULAQAT )

TUM JO NAHI TO KUCH BHI NAHI
(SAME AS AAJ TUMSE MULAQAT )

NAZAR MEIN TUM SAMMAA GAYE
(SAME AS KISI SE DIL LAGA LIYA )

IF you find any difficulty in playing these tabs please tell me.

I will try to solve your problem.