Follow Us On Follow us on Facebook Follow us on Twitter Watch us on YouTube
Register
Page 1 of 3 123 LastLast
Results 1 to 15 of 32
  1. #1
    Subhro's Avatar
    Subhro is offline Argentina lost :"(
    Join Date
    Dec 2004
    Posts
    993

    Smile Complete tabs & chords of Jab Kisiki taraf dil jhukne lage-Pyar to hona hi tha

    Hi evrybdy,

    This song goes out 2 all u hopeless people havin a hopeless crush on some1 but cant s**** it out..
    Spent a lot of time in tabbin this song & evaluatin the chords.. suggest ny corrections if there r ny ( i mean many )..
    Ok here it goes..

    intro part i tabd isnt prfct .. i dunno..did the best i cud.. its up 2 J and rest gtr pros 2 cum up with the accurte 1. Its similar 2 that in Bryan Adams - Hav u evr really loved a woman.

    E |----------------------------------------|
    B |----------------------------------------|
    G |--------------------------------4-------|
    D |---4----6-7-6----4-6-7-6-----4---7-6---|
    A |------------4-----------4-----------4---|
    E |------------4-----------7---------------|

    Strum slowly... 1 sroke down slowly..

    F#m............................E
    Jab Kisiki taraf dil jhukne lage
    F#m...............................E
    Baat aakar juban tak rukne lage
    Bm...........................E.........F#m.......
    Aankhon aankhon mein ikhraar hone lage
    Bm............................F#m.......
    Bol do aagar tume pyar hone lage
    E............F#m.......
    Hone lage hone lage

    Solo..

    E |-------------------------------------------------------------------------7-----|
    B |---7--9-10-7-----7---10-10-9---7-10-9-7------7--9-10-7-----7---10-10---9---|
    G |----------------9--9----------------------9-----------------9--9--------------|
    D |-------------------------------------------------------------------------------|
    A |-------------------------------------------------------------------------------|
    E |-------------------------------------------------------------------------------|

    This is actually a synth part.. but if u want it 2 be an all guitar show...

    E |-------s------------------------s---s-----------------|
    B |---7--9/10-9-7----------------7/9-9\7-5-------s------|
    G |----------------6-6-7---6--4-------------4-4-6/7-6---|
    D |------------------------------------------------------|
    A |------------------------------------------------------|
    E |------------------------------------------------------|

    F#m............................E
    Jab Kisiki taraf dil jhukne lage
    F#m...............................E
    Baat aakar juban tak rukne lage
    Bm...........................E.........F#m......
    Aankhon aankhon mein ikhraar hone lage
    Bm............................F#m......
    Bol do aagar tume pyar hone lage

    Fill these notes in between quickly

    E |-------------------|
    B |-------------------|
    G |-----------0(h)1---|
    D |---2-2-4-2---------|
    A |-------------------|
    E |-------------------|

    E.........
    Hone lage

    Again...

    E |-----------|
    B |-----------|
    G |-------1---|
    D |---4-2-----|
    A |-----------|
    E |-----------|

    F#m.......
    hone lage

    Synth part..

    E |------------------------------------------------------------|
    B |------------------------------------------------------------|
    G |---6(h)7(p)6-4-6----------4--------------------------------|
    D |-----------------7(p)4-7-----6-4-------4------4------4-----|
    A |---------------------------------7---7---7--7---5--5---7---|
    E |------------------------------------------------------------|

    E |-------------------------------------------------------------------|
    B |--------------------------------s----------------------------------|
    G |---6(h)7(p)6-4-6----------4-6-6\4---------------------------------|
    D |-----------------7(p)4-7------------6-7-9-9(p)6------6-7-7(h)9----|
    A |------------------------------------------------9(p)7--------------|
    E |-------------------------------------------------------------------|


    E |------------------------------------------------------|
    B |----------------------------------7-------------------|
    G |---8(p)6---8--8-8---9(p)8-6-9--9----6--4-6b--4-6b---|
    D |---------9--------------------------------------------|
    A |------------------------------------------------------|
    E |------------------------------------------------------|


    F#m...........Bm...E.........F#m..
    Chahane jab lage dil kisiki khusi
    F#m.........Bm.....E...............Bm..
    Dil lagi yeh nahin yeh hai dil ki lagi

    E |--------------------------|
    B |--------s-----------------|
    G |---4-6-6/8-6-4---4-------|
    D |-------------------7-6----|
    A |--------------------------|
    E |--------------------------|

    F#m..........Bm....E...........F#m
    Aadhioko dabane se kye faida
    F#m..........Bm....E...............Bm
    Pyar dil me chupane se kya faida

    Bm.....................E......F#m.......
    Jaan se pyara jab dildar hone lage
    Bm............................F#m.......
    Bol do agar tumhe pyar hone lage

    E |-------------------|
    B |-------------------|
    G |-----------0(h)1---|
    D |---2-2-4-2---------|
    A |-------------------|
    E |-------------------|

    E.........
    Hone lage

    E |-----------|
    B |-----------|
    G |-------1---|
    D |---4-2-----|
    A |-----------|
    E |-----------|

    F#m.......
    hone lage

    E |--------------------------|
    B |--------------------------|
    G |---------4--------s-------|
    D |---4-6-6----7-6-6/7-4----|
    A |--------------------------|
    E |--------------------------|

    F#m............................E
    Jab Kisiki taraf dil jhukne lage
    F#m...............................E
    Baat aakar juban tak rukne lage
    Bm...........................E.........F#m......
    Aankhon aankhon mein ikhraar hone lage
    Bm............................F#m......
    Bol do aagar tume pyar hone lage

    E |-------------------|
    B |-------------------|
    G |-----------0(h)1---|
    D |---2-2-4-2---------|
    A |-------------------|
    E |-------------------|

    E.........
    Hone lage

    E |-----------|
    B |-----------|
    G |-------1---|
    D |---4-2-----|
    A |-----------|
    E |-----------|

    F#m.......
    hone lage

    Solo...

    E |-------------------------------------------------9---------|
    B |---10---10-10-12-10----10-------10---10-10-12---12-10---|
    G |---------------------13--------9---------------------------|
    D |-----------------------------------------------------------|
    A |-----------------------------------------------------------|
    E |-----------------------------------------------------------|

    E |---------------------9-------------------------------|
    B |--------9-----9----9--9-----------------9-10-9------|
    G |---11--11-11---11----------9-11--11-11-------11----|
    D |-----------------------------------------------------|
    A |-----------------------------------------------------|
    E |-----------------------------------------------------|

    Synth part...

    E |---------------------------------------------------|
    B |---------------------------------------------------|
    G |---------------------------------------4-6(p)4-----|
    D |-----4-6-7-7-7-4-7(p)6-7----4--7-7--7--------7---|
    A |---7-----------------------------------------------|
    E |---------------------------------------------------|

    E |------------------------------------------------|
    B |------------------------------------------------|
    G |------------------4-----------------------------|
    D |---4-6--4-6--4-6---6------4--4-4-6-7(p)6-4----|
    A |-------------------------7----------------------|
    E |------------------------------------------------|

    E |--------------------------------------------------------------------|
    B |--------------------------------s-------------------s---------------|
    G |----------4---------7-7(p)6-4-4/6---------s------7-7/9--7-6---6---|
    D |----4-6-7--7----4-6---------------7----7-7/9-7--------------7-----|
    A |--------------------------------------------------------------------|
    E |--------------------------------------------------------------------|

    F#m............Bm...E...................F#m
    Uski khusboo agar apni saso mein ho
    F#m..........Bm...E........................Bm
    Uska sapna agar apni aankhon mein ho

    E |--------------------------|
    B |---------s----------------|
    G |---4-6-6/8-6-4---4-------|
    D |--------------------7-6---|
    A |--------------------------|
    E |--------------------------|

    F#m...........Bm....E.............F#m
    Jab na dil ki bahal ne ki surat lagi
    F#m............Bm...E..........Bm
    Jab koyi jindagi ki jarurat lage

    Bm............E..........F#m.......
    Aur jina bhi dushwar hone lage
    Bm..........................F#m.......
    Bol do agar tume pyar hone lage


    E |--------------------|
    B |--------------------|
    G |------------0(h)1---|
    D |---2-2-4-2---------|
    A |--------------------|
    E |--------------------|

    E.........
    Hone lage

    E |-----------|
    B |-----------|
    G |-------1---|
    D |---4-2-----|
    A |-----------|
    E |-----------|

    F#m.......
    hone lage

    E |--------------------------|
    B |--------------------------|
    G |---------4--------s-------|
    D |---4-6-6----7-6-6/7-4----|
    A |--------------------------|
    E |--------------------------|

    F#m............................E
    Jab Kisiki taraf dil jhukne lage
    F#m...............................E
    Baat aakar juban tak rukne lage
    Bm...........................E.........F#m......
    Aankhon aankhon mein ikhraar hone lage
    Bm............................F#m......
    Bol do aagar tume pyar hone lage

    E |--------------------|
    B |--------------------|
    G |------------0(h)1---|
    D |---2-2-4-2---------|
    A |--------------------|
    E |--------------------|

    E.........
    Hone lage pyar

    E |-----------|
    B |-----------|
    G |-------1---|
    D |---4-2-----|
    A |-----------|
    E |-----------|

    F#m.......
    hone lage

    A.........E..........F#m.......
    ruuuuu ru ru ru ruh tu ru
    A.............E.............F#m......
    ru ru ru ru ru ru ruh tu ru ru

    F#m...E..Bm.......A..
    Pyaar to hona hi tha
    F#m...E..Bm.......A..
    pyaar to hona hi tha

    F#m..E..Bm......A..
    Whistling..
    F#m..E..Bm......A..
    Whistling..

    nyways hav fun playin this piece.. and plz reply 2 let me know if it sounds ok.. specially the chords.
    waitin eagerly 4 ur responses..

    bye tk cre, & plz reply.
    chill SUbhro.

  2. #2
    rizaaj's Avatar
    rizaaj is offline Forum Leader
    Join Date
    Sep 2004
    Location
    Sweet Middle East
    Posts
    1,294
    nice ones subhro.. really nice... i was lookin for this for a long time....
    thanx again
    الذئب الليلي

    أكثر مِنْ ألف رسول لا يَستطيعونَ أَنْ يَدُوروا طريقةَ التفكير في بلاد العرب، ماذا يمكن أَنْ نحن بشر يَعمَلُ؟


    يَتغيّبُ عن وطنِي حقاً، على الأقل نحن ناسَ عاقلينَ

  3. #3
    Subhro's Avatar
    Subhro is offline Argentina lost :"(
    Join Date
    Dec 2004
    Posts
    993
    thanx a lot rizz
    do the chords sound ok ?

  4. #4
    DesiPride143's Avatar
    DesiPride143 is offline BEHAVE!
    Join Date
    Nov 2003
    Location
    Boston, USA
    Posts
    454
    the chords are great dude, thanx alot...i know da actual intro...it's actually same as the "have you ever really loved a woman" by Bryan Adams so i'll post it soon...till then...peace out
    Life Sux and U Die!!!

  5. #5
    rizaaj's Avatar
    rizaaj is offline Forum Leader
    Join Date
    Sep 2004
    Location
    Sweet Middle East
    Posts
    1,294
    havent tried it yet but will soon let u know... they look gud anywayz
    الذئب الليلي

    أكثر مِنْ ألف رسول لا يَستطيعونَ أَنْ يَدُوروا طريقةَ التفكير في بلاد العرب، ماذا يمكن أَنْ نحن بشر يَعمَلُ؟


    يَتغيّبُ عن وطنِي حقاً، على الأقل نحن ناسَ عاقلينَ

  6. #6
    its4ashish is offline Guitarist
    Join Date
    Dec 2004
    Location
    Delhi
    Posts
    145
    its really nice....

  7. #7
    Join Date
    Apr 2004
    Location
    Bangalore
    Posts
    67
    fantastic work man!!!!
    Impossible is just a big word thrown around by small men,
    who find in easier to live in the world they've been given,
    than to explore the power they have to change it.

  8. #8
    Subhro's Avatar
    Subhro is offline Argentina lost :"(
    Join Date
    Dec 2004
    Posts
    993

    Smile

    Hi guyz..

    thanx a lot 4 replyin back.. hrt brk kid, desi, ashis & riz & also 4 the inspiration &
    @desi .. post the intro dude..

    well thanx evrybdy..
    chill Subhro.

  9. #9
    Sanjay Mazumder's Avatar
    Sanjay Mazumder is offline ~..::MASTERMIND::..~
    Join Date
    Dec 2004
    Location
    Pune
    Posts
    250
    Wow, Good Job......
    "Come to the edge," he said.

    They said, "We are afraid."

    "Come to the edge," he said.

    They came, he pushed them....

    and they flew.............

  10. #10
    Subhro's Avatar
    Subhro is offline Argentina lost :"(
    Join Date
    Dec 2004
    Posts
    993
    thnx sanjay

  11. #11
    jayna_420 is offline Newbie
    Join Date
    Dec 2004
    Location
    London, UK
    Posts
    27
    it sounds cool... and looks as though it was hard work!!!

    so good stuff mate...!

  12. #12
    Subhro's Avatar
    Subhro is offline Argentina lost :"(
    Join Date
    Dec 2004
    Posts
    993

    Smile thnx jayna

    Bingo .. t h a t.. w a s.. h a r d.. w o r k...

    thnx a ton jayna.. glad u liked it..
    bye tk cre

    chill Subhro..

  13. #13
    Subhro's Avatar
    Subhro is offline Argentina lost :"(
    Join Date
    Dec 2004
    Posts
    993

    Talking

    i'm kinda surprised.. or shall i say i'm still waitin..

    Jay hasnt messed with these chords of mine..
    keepin my fingers crossed that these remain unchanged.. howevr ..deep inside i know.. he's gonna come up with another asus2 or c7 or abdim or e7.. ....sigh...

    bye tk cre
    chill Subhro..

  14. #14
    lalbamboo's Avatar
    lalbamboo is offline Guitarist
    Join Date
    May 2004
    Location
    dubai
    Posts
    153
    Try A major instead of F#minor in the following places, it will sound better

    Amaj E
    chahane lage jab dil kisiki khushi

    and in
    the final pyar to hona hi tha at the end of the song

  15. #15
    its4ashish is offline Guitarist
    Join Date
    Dec 2004
    Location
    Delhi
    Posts
    145
    Thanks for sending the beautiful tab

 

 
Page 1 of 3 123 LastLast

Similar Threads

  1. Pyar to Hona hi Tha - jab kisi ki taraf dil
    By DesiPride143 in forum Hindi Guitar Tabs - Submit or Request
    Replies: 8
    Last Post: 10-03-2009, 04:16 PM
  2. Tabs of Jab Kisi ki taraf dil zukane lage..
    By Crazy Guitar in forum Hindi Guitar Tabs - Submit or Request
    Replies: 0
    Last Post: 05-28-2008, 11:28 AM
  3. Chords: Pyar to hona hi hai - SUNDAY
    By hotguy_me in forum Hindi Guitar Tabs - Submit or Request
    Replies: 2
    Last Post: 02-12-2008, 07:31 PM
  4. chords of Jab Kisi Ki Taraf 4m Pyar To Hona Hi Tha ???
    By AsHu G in forum Hindi Guitar Tabs - Submit or Request
    Replies: 2
    Last Post: 08-05-2007, 10:40 PM
  5. Req: Chords for Pyar toh hona hi hai (Suroor - Haider Ali)
    By WonderWall in forum Pakistani Guitar Tabs - Submit or Request
    Replies: 0
    Last Post: 04-15-2006, 11:06 PM

Bookmarks

Posting Permissions

  • You may not post new threads
  • You may not post replies
  • You may not post attachments
  • You may not edit your posts
  •  
Single Sign On provided by vBSSO