Follow Us On Follow us on Facebook Follow us on Twitter Watch us on YouTube
Register
Results 1 to 4 of 4
  1. #1
    lalbamboo's Avatar
    lalbamboo is offline Guitarist
    Join Date
    May 2004
    Location
    dubai
    Posts
    153

    Chords for " Do lafzon ki hai ""

    Dm C
    Do lafson ki Hai, Dil ki kahani
    Bb Dm
    ya hai mohabbat, ya hai jawani
    G C D Dm
    La la la... la... la la la...

    F
    Is Zindagi ke din kitne kum hai
    A Dm
    Thodi hai khushiyan, aur kitne gum hai
    Dm Gm Dm
    La la la la la la...la la la
    Dm C
    Lag ja gale se, rut hai suhani
    Bb Dm
    ya hai mohabbat, ya hai jawani.

  2. #2
    Zion's Avatar
    Zion is offline *** Santana Ka Baap ***
    Join Date
    Jan 2004
    Posts
    129
    awesome man...
    Words when stretched becomes a song...

    Movement when stretched becomes a dance...

    Mind when stretched becomes meditation...

    Life when stretched becomes celebration...

  3. #3
    talkjay83's Avatar
    talkjay83 is offline Newbie
    Join Date
    May 2007
    Posts
    13

    Talking tabs + chords

    more detailed

    MOVIE:GREAT GAMBLER
    Title:DO LAFZON KI HAI DIL KI KAHANI
    TABBED BY: ANSHUK

    DO LAFZON KI HAI DIL KI KAHANI



    E ---------5---10~-------------10---------8---------------
    B ----5-6-------------------10----10--9-8-----------------
    G --7-----------------------------------------------------
    D --------------------------------------------------------
    A --------------------------------------------------------
    E -------------------------------------------------------
    D E F A D A D A G# G C
    do lafzon ki hai dil ki kahani


    E ---8-------6------------------6---------------------------
    B -8---8-7-6------------------6---6/5-5-6-5----5------------
    G -------------------------------------------7---7----------
    D ----------------------------------------------------------
    A ----------------------------------------------------------
    E ----------------------------------------------------------
    G C G F# F A# F A# F/E F E F D E D
    ya hai mohabbat ya hai jawaani


    E -----------5H6---------------------------------------------------
    B ----5-6--8--------5-5-5-5---7H8-----------------------------------------
    G --7------------------------------------------------------------
    D --------------------------------------------------------------
    A -------------------------------------------------------------
    E --------------------------------------------------------------
    D E F G Ah A# E E E E F#
    La La La La La , La La La La


    E --------------------------------------------------------------
    B --8--6--5-8-6--5-----------8-6-5--8--6-5---------------------
    G ---------------------------------------------------------------
    D --------------------------------------------------------------
    G F E G F E G F E G F E
    dil ki baaton ka matlab na pucho


    E --8-7---5----5-5--------5-----------------------------------------
    B ----------8----------------8--6-5------------------
    G -----------------------------------7-7------------------------
    D --------------------------------------------------------------
    C B A G A A A G F E D D
    kuch aur hamse bas ab na pucho

    E ---------5---10-------------10---------8---------------------------
    B ----5-6------------------10----10--9-8-----------------------------
    G --7--------------------------------------------------------
    D ---------------------------------------------------------
    A -------------------------------------------------------------
    E --------------------------------------------------------------
    D E F A D A D A G# G C
    jiske liye hai duniya deewani

    E ---8-------6------------------6----------------------------------
    B -8---8-7-6------------------6---6/5-5-6-5----5----------------------------
    G -------------------------------------------7---7-------------
    D ----------------------------------------------------------------
    A ------------------------------------------------------------
    E --------------------------------------------------------------
    G C G F# F A# F A# F/E F E F D E D
    ya hai mohabbat ya hai jawaani


    found while googling
    JAY

  4. #4
    komal29 is offline Composer
    Join Date
    Sep 2011
    Posts
    622
    Quote Originally Posted by lalbamboo View Post
    Dm C
    Do lafson ki Hai, Dil ki kahani
    Bb Dm
    ya hai mohabbat, ya hai jawani
    G C D Dm
    La la la... la... la la la...

    F
    Is Zindagi ke din kitne kum hai
    A Dm
    Thodi hai khushiyan, aur kitne gum hai
    Dm Gm Dm
    La la la la la la...la la la
    Dm C
    Lag ja gale se, rut hai suhani
    Bb Dm
    ya hai mohabbat, ya hai jawani.
    thanks a lot for the chords of the evergreen song..

 

 

Similar Threads

  1. Accurate Chords Of "pehli Nazar Mein" By Atif Aslam From The Movie "race"
    By anurag1988 in forum Hindi Guitar Tabs - Submit or Request
    Replies: 20
    Last Post: 01-13-2013, 12:19 PM
  2. CHORDS for "JISM" Songs "SHIKAYAT HAI" and "AWARAPAN DIWANAPAN"
    By luvmusic in forum Hindi Guitar Tabs - Submit or Request
    Replies: 5
    Last Post: 12-22-2009, 10:50 PM
  3. Guitar Chords for "It's Rocking" by Alisha Chinoy from the movie "kya love story hai"
    By metalmonkey in forum Hindi Guitar Tabs - Submit or Request
    Replies: 3
    Last Post: 09-03-2007, 07:55 PM
  4. Chords of Abhijeet Sawant's "mohabbatein lutaaunga" and "piya bole" from Parineeta
    By rahul_link in forum Hindi Guitar Tabs - Submit or Request
    Replies: 1
    Last Post: 10-03-2006, 03:30 AM
  5. req:i want chords for "lagi tumse mann kii lagan"frm paap and "tere bin jeena nahi"
    By zara_love in forum Hindi Guitar Tabs - Submit or Request
    Replies: 6
    Last Post: 03-31-2006, 12:52 PM

Bookmarks

Posting Permissions

  • You may not post new threads
  • You may not post replies
  • You may not post attachments
  • You may not edit your posts
  •  
Single Sign On provided by vBSSO