Follow Us On Follow us on Facebook Follow us on Twitter Watch us on YouTube
Register
Page 1 of 2 12 LastLast
Results 1 to 15 of 23
  1. #1
    Hardik's Avatar
    Hardik is offline .:.:.:BoRn TaLenT:.:.:.
    Join Date
    Jan 2005
    Location
    Pune
    Posts
    643

    Talking Chehra hai ya chand-Sagar...Complete with Intro + fill-ins+chords

    Chehra hai ya chand khila hai-Sagar
    Intro:
    ....A
    E--0-0---------0--1-0h1p0----------------0----
    B--2-2--2--3----------------------------2--2----
    G--2----------------------------------2------2----
    D--2-------------------------------2---------------
    A-0------------------------------0-----------------
    E---------------------------------------------------


    ..........................................E
    E-----------------------------0-0------------------
    B-3-1-0-----------------------0-0----------------
    G---------2—1h2-1-----------1-1---------------
    D-----------------------------2--------------------
    A----------------------------2---------------------
    E---------------------------------------------------

    .................................................. ...Am
    E-------------------------------------0------------
    B--------0--1--3--1—0h1p0----------1-1------
    G-1--2------------------------------2---2--------
    D-----------------------------------2--------------
    A---------------------------------------------------
    E---------------------------------------------------

    .................................................. ......................................E
    E--000-------0------0-----------------------------------------0----------
    B-------1-0----1-0---1-0----0-1-3-4---5-555555555-----------0---
    G-----------2------2------2------------5-555555555-----------1------
    D--------------------------------------------------------------2------------
    A-----------------------------------------------------------2---------------
    E----------------------------------------------------------------------------


    E-----------------------------------------------------------------------------
    B-------0--------------------------------------------------------------------
    G--1-2--2-1---------------1h2---2/4—4h5—5h7—7/13--13---------
    D------------3-2-0---2h3--------------------------------------------------
    A----------------------------------------------------------------------------
    E----------------------------------------------------------------------------

    .................................................. .................................Am
    E-----------------------------------------------------------0---------------
    B-----------------------------------------------------------1---------------
    G---1-----1----1----1----1----1---1------------------------2-----------
    D-2--3-0--3-2--3-0--3-2--3-0--3-2-2--2--------------------2-------
    A------------------------------------3---3-2-------12\2-----------------
    E---------------------------------------------------------------------------

    (this is the flute and the strings part)


    E--0-----0------0------0-------0-1-0------0-1-0----0-1-0-1-0-1-0---
    B---1-0---1-0----1-0----1-0---------------------------------------------
    G-------2-----2------2------2---------------------------------------------
    D---------------------------------------------------------------------------
    A---------------------------------------------------------------------------
    E---------------------------------------------------------------------------
    -----Am----------------------------------
    Ho, Chehra Hai Ya Chand Khila Hai
    -----------------------------------
    Zulf Ghaneri Shaam Hai Kya
    G--------------------------------
    Saagar Jaisi Aankhon Vaali
    Am-------------------Am-------
    Ye To Bataa Tera Naam Hai Kyaa



    Fill in 1 :
    E-------------------------------------------------
    B----1-0-------1-0------1-0------1-0---------
    G---------2---------2---------2---------2------
    D--2---------2---------2---------2-------------
    A-------------------------------------------------
    E-------------------------------------------------
    Am----------------------------------
    Chehra Hai Ya Chand Khila Hai
    -----------------------------------
    Zulf Ghaneri Shaam Hai Kya
    G--------------------------------
    Saagar Jaisi Aankhon Vaali
    Am-------------------Am-------
    Ye To Bataa Tera Naam Hai Kyaa

    Fill in 2 :

    E--0------------------------------------0---------0-1-0------0-1-0----0-1-0-1-0-1-0---
    B-----1----0-1-------------------0-1--------------------------------------------------------
    G--------2------2----0-2---1-2-------------------------------------------------------------
    D-------------------3------2-----------------------------------------------------------------
    A----------------------------------------------------------------------------------------------
    E----------------------------------------------------------------------------------------------
    -----Am-------------E------------
    Are Tu Kya Jaane Teri Khaatir
    Am-----------E----------Am
    Kitna Hai Betaab Ye Dil
    Am--------------E----------------
    Tu Kya Jaane Dekh Raha Hai
    G-------------Am----------
    Kaise Kaise Khwaab Ye Dil


    Fill in 3 :

    E---------------------------------------------------0-1-0------0-1-0----0-1-0-1-0-1-0---
    B-------1-0-------1-0-------1-0-------1-0--------------------------------------------------
    G----2----------2---------2----------2-------------------------------------------------------
    D-2----------2---------2----------2----------------------------------------------------------
    A-----------------------------------------------------------------------------------------------
    E-----------------------------------------------------------------------------------------------
    Am----------------------------------
    Dil Kehta Hai Tu Hai Yahaan To
    -----------------E------------
    Jaata Lamha Tham Jaaye
    A-------------------D-------------
    Waqt Ka Dariya Behte Behte
    G--------------------Am------
    Is Manzar Mein Jam Jaaye

    Am------------------------------------
    Toone Deewana Dil Ko Banaaya
    ------------------------------
    Is Dil Par Ilzaam Hai Kya
    G--------------------------------
    Saagar Jaisi Aankhon Vaali
    Am-------------------Am-------
    Ye To Bataa Tera Naam Hai Kya...


    Play Fill in 2 :

    -----Am-------------------E----------
    Ho, Aaj Maein Tujhse Door Sahi
    ------Am-------------E----Am--
    Aur Tu Mujhse Anjaan Sahi
    Am-----------E-----------------
    Tera Saath Nahin Paaun To
    G---------------Am------
    Khair Tera Armaan Sahi


    Music :
    this is the strings/flute and the guitar part
    E-------------0-5---------------------------------------------
    B-1--0-----3-------------------------------------------------
    G---------2---------------------------------------------------
    D--------------------------------------------------------------
    A-------------------------------------------------------------
    E--------------------------------------------------------------

    E--7-5-------7-4--------7-3----------7-5------------------
    B------5----------4-----------3-------------5---------------
    G-------------------------------------------------------------
    D-------------------------------------------------------------
    A-------------------------------------------------------------
    E--------------------------------------------------------------

    E------------------------------------------------------------------------------------
    B----------0-------0--------------1-3-1-1----3-------3-1-0---0-----------0----
    G----0-2----2-----------------2----------2------------------------2-1----0------
    D--2------------2-----------3---------------3----------------------------2-------
    A------------------------------------------------------------------------------------
    E------------------------------------------------------------------------------------
    This is the chorus part(la la la) tab:

    E-----------------------------------------------------------------------------------------------------------------------------
    B-------0----0--------0----0-----0-1--3-1-----0-1----1----0-1-3--0-3----0-1-3--0-3------4---0-4-7-5----------
    G----0----0--------0----0-----2-------------2--------2--------------------------------------------
    D--2-------------2-----------------------------------------------------------------------------------
    A------------------------------------------------------------------------------------------------------
    E------------------------------------------------------------------------------------------------------
    you can play these chords here::

    Em--------------------
    la la la lala, la la la lala
    Am-------------------------
    la la la lala, la la la lala
    G--------------------------
    la la la lala, la la la lala
    B------------------------Em
    laaaaaaaaa la la la la


    Play Fill in 3 :


    Am-----------------------------------
    Ye Armaan Hain Shor Nahin Ho
    -----------------E----------
    Khamoshi Ke Mele Hon
    A-----------------D--------------
    Is Duniya Mein Koi Nahin Ho
    G-------------------Am---
    Hum Dono Hi Akele Hon

    Am--------------------------------
    Tere Sapne Dekh Raha Hoon
    ---------------------------------
    Aur Mera Ab Kaam Hai Kya
    G--------------------------------
    Saagar Jaisi Aankhon Vaali
    Am-------------------Am-------
    Ye To Bataa Tera Naam Hai Kya...

    A-----------------
    E----12\2-------------

    Chehra hai ya,........


    Play Fill in 3 :


    ###################END#######################
    TaKe LiFe As It CoMes....

  2. #2
    Hardik's Avatar
    Hardik is offline .:.:.:BoRn TaLenT:.:.:.
    Join Date
    Jan 2005
    Location
    Pune
    Posts
    643
    hi ppl....plz check this out.....the intro i have posted before and has been checked be jayswami and baanbaaja......
    plz check da rest and give your comments..........


    here's the link of this song i have recorded....and man was it tough...one misteke and you have to start all over again...

    http://www.soundclick.com/bands/page...?bandID=413549


    have done 2-3 mistakes...plz forgive them...

    waiting for ur comments and suggestions....
    TaKe LiFe As It CoMes....

  3. #3
    vini is offline Repeat Offender
    Join Date
    Feb 2005
    Location
    Secret Garden
    Posts
    3,038
    BRILLIANT!! is thy middle name..is it? very amzing chords and fill ins...i cant rep u so plz accept a lil gift of 5k points as my token of appreciation

    However..im kinda cynical about the chords u have used in the following part..the bold/red chords below i mean>>
    Am-------------------Am----E---Am
    Ye To Bataa Tera Naam Hai Kya...

    G---------------Am---E---Am
    Khair Tera Armaan Sahi
    just recheck and lemme know...iL fish a substitute in the meantime..if there is any...

    good job..keep posting!!
    .. Rock got no reason
    Rock got no rhyme ..

  4. #4
    Join Date
    May 2005
    Location
    opposite axeland :(
    Posts
    494
    Hey thats really a fantastic piece of wrk! Appreciate it
    reps 4 u!!
    ---------------------------------------------------
    You can muffle the drums, and you can loosen the strings of the lyre, but who shall command the skylark not to sing?

  5. #5
    Acoustic_Allure's Avatar
    Acoustic_Allure is offline Guitarist
    Join Date
    Apr 2005
    Location
    England
    Posts
    173

    Cool

    Har***

    Great guitaring...almost perfect but you are singing at a lower pitch than original. The pitch you start with is low...then when you sing "are tu kya jaane teri khatir"..you go very high and drop down abruptly...

    But overall quite a good job...
    Guitaring 9/10
    Singing 5/10

    But your Aadat song was classic...
    Reps for the hardwork

  6. #6
    shantanukr's Avatar
    shantanukr is offline yEh DiL mAanGe m0rE
    Join Date
    Sep 2004
    Location
    Hyderabad
    Posts
    329
    Good work dude ... Really like it ..

    Life RocKsss !!

  7. #7
    Hardik's Avatar
    Hardik is offline .:.:.:BoRn TaLenT:.:.:.
    Join Date
    Jan 2005
    Location
    Pune
    Posts
    643
    @vini....thank you very very much......
    abuot the chords....the E that i have used is my own touch i guess...i couldnt find any other chord that goes there ...playing Am didnt seem right so i added the E.....
    ok...for the G thats there,you can use Am....same as in the line above it.....but i still feel its G.....neways,will check it .....thanks for those points.....

    @sixstringsin...thanks for the appretiation & reps man....

    @Acoustic_Allure...yes it was hardwork all right,but i am got my reward,thank you for ur comments,and yes i am working on the singing part...will surely try n improve....

    @shantanukr.....thank you
    TaKe LiFe As It CoMes....

  8. #8
    Bandbaaja's Avatar
    Bandbaaja is offline Pronounced Band Baaaa Ja
    Join Date
    Jan 2005
    Location
    Matunga (CR), Mumbai
    Posts
    742
    Har*** Good Work

    Some minor changes (as i see it)

    -----Am----------------------------------
    Ho, Chehra Hai Ya Chand Khila Hai
    -----------------------------------
    Zulf Ghaneri Shaam Hai Kya
    G--------------------------------
    Saagar Jaisi Aankhon Vaali
    Am-------------------Am----<E>---Am - THE E is not required
    Ye To Bataa Tera Naam Hai Kyaa


    -----Am-------------E------------
    Are Tu Kya Jaane Teri Khaatir
    Am-----------<E>----------Am - This E is also not there ...
    Kitna Hai Betaab Ye Dil ^^^^^^^^^^...the note played at the point is C
    Am--------------E----------------
    Tu Kya Jaane Dekh Raha Hai
    <G>------------Am-------E---Am - Play Am on 1st Kaise and G on 2nd Kaise
    Kaise Kaise Khwaab Ye Dil

    Am----------------------------------
    Dil Kehta Hai Tu Hai Yahaan To
    -----------------E------------
    Jaata Lamha Tham Jaaye

    HERE IS AN IMPORTANT ADDITION

    INSTEAD OF THIS...

    A-------------------G-------------
    Waqt Ka Dariya Behte Behte
    --------------------Am--E---Am
    Is Manzar Mein Jam Jaaye

    PLAY THIS

    A-------------------D-------------
    Waqt Ka Dariya Behte Behte
    G-------------------Am--------
    Is Manzar Mein Jam Jaaye

    CHEERS
    All Strings Attached...

  9. #9
    Bandbaaja's Avatar
    Bandbaaja is offline Pronounced Band Baaaa Ja
    Join Date
    Jan 2005
    Location
    Matunga (CR), Mumbai
    Posts
    742
    ALSO
    Now that i realize why you've added the E chord at places.
    There is a suggestion as per how I play this song.

    As per the song the B note comes between the Am here and there.
    In all those places play the E sus 4 (002200)

    Basically removing the 1st finger from the C time and again.
    Gives a good feel to the song and
    at the same time doesnt play the Ab note in parts where it is not required at all.

    CHEERS
    All Strings Attached...

  10. #10
    Hardik's Avatar
    Hardik is offline .:.:.:BoRn TaLenT:.:.:.
    Join Date
    Jan 2005
    Location
    Pune
    Posts
    643
    @bandbaaja.......thank you sir,thanks for the corrections.....have included those in my post........
    TaKe LiFe As It CoMes....

  11. #11
    Acoustic_Allure's Avatar
    Acoustic_Allure is offline Guitarist
    Join Date
    Apr 2005
    Location
    England
    Posts
    173
    Hi,

    I have tried this song...same chords as below.
    Please turn down the volume -a bit- on your system as I had no idea that there would be screeches in the audio file.
    http://as01.coolgoose.com/music/song.php?id=209831

    I have omitted the interludes and the last para of the song.

    Please comment
    Also, Har*** can you please let me know which recording software you use...it really sounds nice...I use the default provided with my system...very lowgrade.

    Comments and suggestions

  12. #12
    Hardik's Avatar
    Hardik is offline .:.:.:BoRn TaLenT:.:.:.
    Join Date
    Jan 2005
    Location
    Pune
    Posts
    643
    hi Acoustic_Allure, i heard ur recording.....you need to work on the strumming part dude...it seems you played only downstrokes...i dunno if its beacuse of playing and singing together,...but honestly,the strumming wasnt proper,....try DUDUDD or something....and you need to play softly in the part "dil kehta hai...." and "ye aarma hai..."
    try listening to da song again.....

    and i use nero's audio recorder and wave editor...its a good software for home recording...TC

    Regards,
    Har***
    TaKe LiFe As It CoMes....

  13. #13
    Acoustic_Allure's Avatar
    Acoustic_Allure is offline Guitarist
    Join Date
    Apr 2005
    Location
    England
    Posts
    173
    Thanks Har***....comments on vocals please as well...

  14. #14
    Hardik's Avatar
    Hardik is offline .:.:.:BoRn TaLenT:.:.:.
    Join Date
    Jan 2005
    Location
    Pune
    Posts
    643
    vocals were ok......me too working in the same field to improve..so didnt comment..
    TaKe LiFe As It CoMes....

  15. #15
    virat_123's Avatar
    virat_123 is offline Newbie
    Join Date
    Jun 2005
    Posts
    43
    wow har***
    it took 3 months to play this introbut i think it is the most beautiful lead in the world......good work very good work

 

 
Page 1 of 2 12 LastLast

Similar Threads

  1. Chehra hai ya chand khila hai--intro part
    By Hardik in forum Hindi Guitar Tabs - Submit or Request
    Replies: 19
    Last Post: 11-25-2011, 07:15 PM
  2. Chehra Hai Ya Chand Khila Hai (tabs)
    By Salil Charaya in forum Hindi Guitar Tabs - Submit or Request
    Replies: 8
    Last Post: 08-04-2009, 01:20 AM
  3. Sagar - Chehra hai ya chand khila hai
    By shobhit4friends in forum IGT Soundtrack - Your Band, Your Gig, Your Music
    Replies: 3
    Last Post: 09-26-2008, 11:50 PM
  4. Main Shayar to Nahi-Bobby....Intro+Fill ins+solo+chords+audio
    By Hardik in forum Hindi Guitar Tabs - Submit or Request
    Replies: 42
    Last Post: 01-09-2007, 11:07 PM
  5. Chehra hai ya chand khila .... n many more
    By ziblu_bhoot in forum IGT Soundtrack - Your Band, Your Gig, Your Music
    Replies: 14
    Last Post: 03-26-2006, 09:47 AM

Bookmarks

Posting Permissions

  • You may not post new threads
  • You may not post replies
  • You may not post attachments
  • You may not edit your posts
  •  
Single Sign On provided by vBSSO