Follow Us On Follow us on Facebook Follow us on Twitter Watch us on YouTube
Register
Page 1 of 2 12 LastLast
Results 1 to 15 of 25
  1. #1
    MARS is offline Mars Ji...Finally!!!!!
    Join Date
    May 2004
    Location
    Mumbai
    Posts
    192

    Arrow Bheege Honth tere from Murder

    Can anybody send me Bheege Honth tere..from Murder..

    Somebody posted them on this forum but i m not finding them useful..

    pls let me know whether i am at fault or there is some problem with the tabs provided..

    If anybody have the tabs of this song pls post it ASAP...

    Thanks..

  2. #2
    Rohan is offline Tabber
    Join Date
    Apr 2004
    Location
    Puna
    Posts
    206

    Bheege Honth tere..from Murder..

    Hey buddy I had posted the chords b4,now i hav made corrections.
    And I think this one is flawless if u get strumming well.Sing along Mp3.
    GR8 song.It will take time for me to take out TABS.If u try u can get 'em easily using chords.The TABS posted by Ansh are not proper.

    Tuning scale(E)

    Bheege hoth tere pyasa dil mera
    D-------C----D------C-------D
    lage abr saa..aaa muze tan tera
    D----C----D--G--D-----C----D

    (Second line is same only i dont remember lyrics)

    Kabhi mere saaa..aath koi raat gujaaa..aar
    Em---------D------C--Em-------C------D
    tuze subaha tak maaaai karu pyaa..aaar
    Em---------D----C---G-Em--D-----C

    The HO HO goes like
    (D-------C----D------C-------D)
    (D----C----D--G--D-----C----D)

    Plz comment and post replies

  3. #3
    MARS is offline Mars Ji...Finally!!!!!
    Join Date
    May 2004
    Location
    Mumbai
    Posts
    192
    Hi Rohan...
    Thanx for the chords..
    but i wud be greatful to u if u can send the tabs also..
    thanks in advance...
    Bye

  4. #4
    Rohan is offline Tabber
    Join Date
    Apr 2004
    Location
    Puna
    Posts
    206
    I'll surely do,u dont stop trying.Just give me some time,Got exams till 8th.

  5. #5
    MARS is offline Mars Ji...Finally!!!!!
    Join Date
    May 2004
    Location
    Mumbai
    Posts
    192
    Oh...
    Take u r time..
    ALL THE BEST FOR U R EXAMS...

  6. #6
    MARS is offline Mars Ji...Finally!!!!!
    Join Date
    May 2004
    Location
    Mumbai
    Posts
    192

    Bheehe Honth---LYRICS

    Here are the full lyrics of this beautiful song..
    Bheegey hont tere, pyaasa dil mera
    Lage abra sa, mujhe tan tera

    Jam ke barsa de, muhj par ghatayen
    Too hi meri pyaas, too hi mera jaam
    Kabhi mere saath, koi raat guzaar
    Tujhe subah tak main karoon pyaar
    vo oh oh...-4

    Sansen aach teri, tan aag tera
    Chhenain neend meri, loote chain mera
    Kala jadoo kare lambe baal tere
    Aakhen jheel teri, dore laal tere

    kabhi mere saath koi raat guzaaar
    tujhe suabh tak main karoon pyaar
    vo oh ho.... -8

    Aakhen kah rahi jo na hum kahain
    use sun le too jo na lab kahain
    Too na soye aaj, main na sooun aaj
    Tujhe dekhooon aaj, tujh mamin khoyun aaj

    Kabhi mere saath, koi raat guzaar
    tujhe subah tak main karoon pyaar
    vo oh ho...-4

    Bheegey hont tere, pyasa dil mera
    lege abra sa, mujhe tan tera

  7. #7
    MARS is offline Mars Ji...Finally!!!!!
    Join Date
    May 2004
    Location
    Mumbai
    Posts
    192
    am still waiting for the tabs..
    can anybody help....

  8. #8
    DesiPride143's Avatar
    DesiPride143 is offline BEHAVE!
    Join Date
    Nov 2003
    Location
    Boston, USA
    Posts
    454
    hey bro here are the tabs for beege hote tere
    some posted similar tabs before i just made corrections... but i m pretty sure that they are accurate this time try it out and let me know

    e---------------------------------------------
    B--7-7-5-5----------------7-7-5---5----------
    G----------7-7-----------------------7-7-----
    D---------------------------------------------
    A---------------------------------------------
    E---------------------------------------------
    Bheege hote tere............pyasa dil mera

    e---------------------------------------------
    B--7-7---7--5---7/8--------7-7-5-5-5--------
    G------7------------------------------7-7----
    D---------------------------------------------
    A---------------------------------------------
    E---------------------------------------------
    Lage abre sa..aaaaa(play slide for aaa)....mujhe tan tera

    e---------------------------------------------
    B--7-7-5-5--5--------------7-7-5---5----------
    G--------------7---------------------7-7----
    D---------------------------------------------
    A---------------------------------------------
    E---------------------------------------------
    Cham ke barsaye...............mujhe per ghatayee

    e---------------------------------------------
    B--7-7---7--5---7/8--------7-7-5-5-----------
    G------7------------------------------7-7----
    D---------------------------------------------
    A---------------------------------------------
    E---------------------------------------------
    Tuhi meri pyaas...............tuhi mera jahaan

    e---------------------------------------------
    B------------7-5---------------5--3-----------
    G--4-4--6-7-----------4-4-6-6----------------
    D---------------------------------------------
    A---------------------------------------------
    E---------------------------------------------
    kabhi mere saath.....koi raat guzaar

    e---------------------------------------------
    B-------------7-5----7/8----7-7--------------
    G---4-4-6-7---------------------7------------
    D---------------------------------------------
    A---------------------------------------------
    E---------------------------------------------
    tujhe suha tak mein....aee, karu pyaar

    e---------------------------------------------
    B---7----7--5-----7--7--5-------7-7-5----7/8--7--7-5---------
    G-------------7------------7-----------7---------------7---
    D---------------------------------------------
    A---------------------------------------------
    E---------------------------------------------
    o ooooh............o...ooooh........o..oooh...ooh... ..o.. ooooh

    that's it for now.....

  9. #9
    MARS is offline Mars Ji...Finally!!!!!
    Join Date
    May 2004
    Location
    Mumbai
    Posts
    192
    Thanx buddy...
    will try them today..

  10. #10
    MARS is offline Mars Ji...Finally!!!!!
    Join Date
    May 2004
    Location
    Mumbai
    Posts
    192
    Hi Desi pride....
    Tabs worked absolutely fine..
    but i thing scale shud be a little high!!It shud be played on the lower frets...
    what do u think..

  11. #11
    DesiPride143's Avatar
    DesiPride143 is offline BEHAVE!
    Join Date
    Nov 2003
    Location
    Boston, USA
    Posts
    454
    hey bro u can do it however u want i like it on the higher pitch but if you think that it would sound better on the lower pitch than you can give it a try

    peace

    aziz

  12. #12
    Rohan is offline Tabber
    Join Date
    Apr 2004
    Location
    Puna
    Posts
    206
    Hey MARS the tabs given by aziz match with my chords,no probs with'em. Only they sound better if played on 1st and 2nd string i.e.E and B strings. Try the equivalent keys on 1st and 2nd strings,sounds gr8.

  13. #13
    bilu is offline Newbie
    Join Date
    Jul 2004
    Posts
    4

    Talking

    Here is the perfected chords of bheege honth. Props to Mars for the full lyrics. Have fun and plz post replies .


    D------G---------D---------G---
    Bheegey hont tere, pyaasa dil mera
    D------------C---------G--
    Lage abra sa , mujhe tan tera
    D-----G---------D--------G-------
    Jam ke barsa de , muhj par ghatayen
    D----------------C-----G--------
    Too hi meri pyaas, too hi mera jaam



    Em--------D------C------G-----
    Kabhi mere saath, koi raat guzaar
    Em---------D-------C-----------
    Tujhe subah tak main karoon pyaar
    C---D--G
    vo oh oh... X 4



    D-----G---------D------G---
    Sansen aach teri, tan aag tera
    D------------------C----------G--
    Chhenain neend meri, loote chain mera
    D---------G---D---------G---
    Kala jadoo kare lambe baal tere
    D--------------C--------G--
    Aakhen jheel teri, dore laal tere



    Em--------D----C-------G------
    kabhi mere saath koi raat guzaaar
    Em---------D-------C-----------
    tujhe suabh tak main karoon pyaar
    C---D--G--
    vo oh ho.... -8



    D-----G-------D---------G---
    Aakhen kah rahi jo na hum kahain
    D-------------C--------G----
    use sun le too jo na lab kahain
    D------G---------D-----G--------
    Too na soye aaj, main na sooun aaj
    D-----------------C----------G---------
    Tujhe dekhooon aaj, tujh mamin khoyun aaj



    Em--------D-----C-------G----
    Kabhi mere saath, koi raat guzaar
    Em---------D-------C-----------
    tujhe subah tak main karoon pyaar
    C--D--G--
    vo oh ho...-4



    D-----------G----D--------G---
    Bheegey hont tere, pyasa dil mera
    D-----------C---------G--
    lege abra sa, mujhe tan tera

  14. #14
    Rohan is offline Tabber
    Join Date
    Apr 2004
    Location
    Puna
    Posts
    206
    Thnx for correction will try n then reply

  15. #15
    Rohan is offline Tabber
    Join Date
    Apr 2004
    Location
    Puna
    Posts
    206
    Hey Bilu thnx but no thnx.I'd better stay with my version.

 

 
Page 1 of 2 12 LastLast

Similar Threads

  1. Req: Tab of song Bheege honth tere
    By Jack n Jill in forum Hindi Guitar Tabs - Submit or Request
    Replies: 0
    Last Post: 07-25-2008, 09:39 PM
  2. piano tabs for bheege honth tere
    By animeshtcom in forum Misc Musical Instruments
    Replies: 4
    Last Post: 01-25-2008, 04:55 AM
  3. Chords of Bheege Honth Tere(Murder)
    By venom_in_city in forum Hindi Guitar Tabs - Submit or Request
    Replies: 12
    Last Post: 11-16-2005, 12:33 AM
  4. Murder....Bheege Hote Tere
    By ansh in forum Hindi Guitar Tabs - Submit or Request
    Replies: 6
    Last Post: 01-04-2005, 07:38 PM
  5. bheegy honth tere-Murder
    By elvis_rao in forum Hindi Guitar Tabs - Submit or Request
    Replies: 13
    Last Post: 11-25-2004, 10:43 PM

Bookmarks

Posting Permissions

  • You may not post new threads
  • You may not post replies
  • You may not post attachments
  • You may not edit your posts
  •  
Single Sign On provided by vBSSO