Follow Us On Follow us on Facebook Follow us on Twitter Watch us on YouTube
Register
Results 1 to 13 of 13
  1. #1
    sumantmodak's Avatar
    sumantmodak is offline Musically Yours !!!
    Join Date
    Sep 2005
    Posts
    133

    Thumbs up Ankahee: Ek Pal Ke Liye (Tabs + Chords) Submitted! Fast Again ! ! !

    Hey Guys,

    Sumant here again, well heared this song just while ago could not resist temptation of tabbing and chording it
    5th latest song submission in 2 day!!!!! Hope you all are finding my work useful
    rep my work if ya like

    Thanks ,






    Song: Ek Pal Ke Liye
    Movie: Ankahee
    Singer: K.K

    |----------------------------------------------------------------------------
    |----------------------------------------------------------------------------
    |----------------------------------------------------------------------------

    Tabs.

    ek pal ke liye hi sahi ghadiya hamko mili makhmali pyar ki
    |----------------------------------------------------------------------------
    |-5-3-5--5-3-5--5-3-5--5-6-p8---3-1-3--3-1-3-1-3-----------------------------
    |----------------------------------------------------------------------------

    iss ek pal ko jee le zara
    |-3-3-3-1-3--0-1-1-----------------------------------------------------------
    |-------------------3-p5-----------------------------------------------------
    |----------------------------------------------------------------------------

    yeh lamhe phir mile na mile kho jaane de sabhi duriya faasale
    |----------------------------------------------------------------------------
    |-5-3-5--5-3-5--5-3-5--5-6-p8---3-1-3--3-1-3-1-3-----------------------------
    |----------------------------------------------------------------------------

    aa dil mila le aur paas aa
    |-3-3-3-1-3--0-1-1-----------------------------------------------------------
    |-------------------3-p5-----------------------------------------------------
    |----------------------------------------------------------------------------

    phir kya ho kya khabar dekha hain kisne kal
    |---------3-1-1--1-1-3-1-0---------------------------------------------------
    |----0-1--------------------3-p5---------------------------------------------
    |-2--------------------------------------------------------------------------

    aa raat rok le phir ho na jaaye sehar
    |----------------------------------------------------------------------------
    |5-6-5-3-1-3--3-5-3-1-3-3-p5-------------------------------------------------
    |----------------------------------------------------------------------------

    phir kya ho kya khabar dekha hain kisne kal
    |---------3-1-1--1-1-3-1-0---------------------------------------------------
    |----0-1--------------------3-p5---------------------------------------------
    |-2--------------------------------------------------------------------------

    aa raat rok le phir ho na jaaye sehar
    |----------------------------------------------------------------------------
    |5-6-5-3-1-3--3-5-3-1-3-3-p5-------------------------------------------------
    |----------------------------------------------------------------------------




    Stanza 1


    kyon takte hain ham baahar khadi fizaayen sard hain
    |-3-3-5-3-3-------3-1-1-0-0--------------------------------------------------
    |----------------------------3-3-5-h6-p5---(play last part fast)-------------------
    |----------------------------------------------------------------------------

    chubhati hain yeh dhadkan dil ki ragon mein phir se dard hain
    |-3-3-5-3-3-------3-1-1-0-0--------------------------------------------------
    |----------------------------3-3-5-h6-p5---(play last part fast)-------------------
    |----------------------------------------------------------------------------

    kitne fasaane tumhe hain sunane abhi toh mila hain waqt zara
    |----7-7-5-5-5-5-7-8-8-p10-3--5-5-5-5-5-4-4--4-5-7-5-------------------------
    |-5--------------------------------------------------------------------------
    |----------------------------------------------------------------------------

    phir kya ho kya khabar dekha hain kisne kal
    |---------3-1-1--1-1-3-1-0---------------------------------------------------
    |----0-1--------------------3-p5---------------------------------------------
    |-2--------------------------------------------------------------------------

    aa raat rok le phir ho na jaaye sehar
    |----------------------------------------------------------------------------
    |5-6-5-3-1-3--3-5-3-1-3-3-p5-------------------------------------------------
    |----------------------------------------------------------------------------

    phir kya ho kya khabar dekha hain kisne kal
    |----------------------------------------------------------------------------
    |5-6-5-3-1-3--3-5-3-1-3-3-p5-------------------------------------------------
    |----------------------------------------------------------------------------

    aa raat rok le phir ho na jaaye sehar
    |----------------------------------------------------------------------------
    |5-6-5-3-1-3--3-5-3-1-3-3-p5-------------------------------------------------
    |----------------------------------------------------------------------------


    Stanza 2 (Play Exactly Like Stanza 1)

    hain khushbu bhari dheemi si roshani charaag ki
    teri hi deewanagi tujhpe fida fida hain har khushi
    palkon se palken zara chhu ke dekh lo
    ismein hai kitna ashq bhara
    phir kya ho kya khabar dekha hain kisne kal
    aa raat rok le phir ho na jaaye sehar
    phir kya ho kya khabar dekha hain kisne kal
    aa raat rok le phir ho na jaaye sehar
    ek pal ke liye hi sahi ghadiya hamko mili makhmali pyar ki
    iss ek pal ko jee le zara
    yeh lamhe phir mile na mile kho jaane de sabhi duriya faasale
    aa dil mila le aur paas aa
    phir kya ho kya khabar dekha hain kisne kal
    aa raat rok le phir ho na jaaye sehar
    phir kya ho kya khabar dekha hain kisne kal
    aa raat rok le phir ho na jaaye sehar



    Chords For Song: Ek Pal Ke Liye

    Em.............................D
    ek pal ke liye hi sahi ghadiya hamko mili makhmali pyar ki
    C..............................Em
    iss ek pal ko jee le zara
    Em.......................................D
    yeh lamhe phir mile na mile kho jaane de sabhi duriya faasale
    C..............................Em
    aa dil mila le aur paas aa

    Am.................................Em
    phir kya ho kya khabar dekha hain kisne kal
    D..........................C.................Em
    aa raat rok le phir ho na jaaye sehar
    Am.................................Em
    phir kya ho kya khabar dekha hain kisne kal
    D..........................C.................Em
    aa raat rok le phir ho na jaaye sehar


    Em..............................C................. ..................Em
    kyon takte hain ham baahar khadi fizaayen sard hain
    Em..............................C................. ..................Em
    chubhati hain yeh dhadkan dil ki ragon mein phir se dard hain
    C.....................D........................... .C......................Em
    kitne fasaane tumhe hain sunane abhi toh mila hain waqt zara

    Am.................................Em
    phir kya ho kya khabar dekha hain kisne kal
    D..........................C.................Em
    aa raat rok le phir ho na jaaye sehar
    Am.................................Em
    phir kya ho kya khabar dekha hain kisne kal
    Am.................................Em
    aa raat rok le phir ho na jaaye sehar



    Stanza 2 (Play Exactly Like Stanza1)

    hain khushbu bhari dheemi si roshani charaag ki
    teri hi deewanagi tujhpe fida fida hain har khushi
    palkon se palken zara chhu ke dekh lo
    ismein hai kitna ashq bhara
    phir kya ho kya khabar dekha hain kisne kal
    aa raat rok le phir ho na jaaye sehar
    phir kya ho kya khabar dekha hain kisne kal
    aa raat rok le phir ho na jaaye sehar
    ek pal ke liye hi sahi ghadiya hamko mili makhmali pyar ki
    iss ek pal ko jee le zara
    yeh lamhe phir mile na mile kho jaane de sabhi duriya faasale
    aa dil mila le aur paas aa
    phir kya ho kya khabar dekha hain kisne kal
    aa raat rok le phir ho na jaaye sehar
    phir kya ho kya khabar dekha hain kisne kal
    aa raat rok le phir ho na jaaye sehar


    (Iam working on riff that plays between stanza if i get it i will post it later!)

    Thanks For Taking Time In Reading my Post
    Comments Suggestions & Criticisms are welcome with open heart!
    Thanks Again
    Live & Die For The Music!
    Rock & Roll For The Music!
    I am For My Music! My Soul Is For Music!

  2. #2
    renu_1982 is offline Newbie
    Join Date
    Jan 2006
    Posts
    6
    cud u pls help with the stumming pattern coz i m real confused.....as i m new to guitar.....i just cant guess the stumming pattern.......pls help

  3. #3
    vintage is offline Newbie
    Join Date
    Jul 2004
    Posts
    14
    yeah strumming apttern please .. I love all your posts .. but could you pelase provide the strumming pattern for all the songs you post ... I can play Fanaa - Chand Sifarsih really well thanks to you

  4. #4
    amit82cse's Avatar
    amit82cse is offline Silent observeR
    Join Date
    May 2005
    Location
    Redmond, WA
    Posts
    1,424
    will try it today...
    facebook.com/amit82cse
    twitter.com/amit82cse

  5. #5
    amit82cse's Avatar
    amit82cse is offline Silent observeR
    Join Date
    May 2005
    Location
    Redmond, WA
    Posts
    1,424
    wow man..you got some really good hears your chords very perfect to me...reps to you...
    facebook.com/amit82cse
    twitter.com/amit82cse

  6. #6
    samagraohri's Avatar
    samagraohri is offline Newbie
    Join Date
    Jul 2006
    Location
    Bhilai
    Posts
    18

    Strumming Pattern Please

    [strumming patrn pls

    c lead is easy to play saare gaano ki but watmatrs is chords
    Samagra: I Love To Be With Good Hearted People

  7. #7
    vishweb's Avatar
    vishweb is offline VISH Rules...............
    Join Date
    Jan 2006
    Location
    Mumbai
    Posts
    41
    superb !!! Great work
    ******************************************
    To handle yourself, use your head,
    To handle others, use your heart.
    ******************************************

  8. #8
    the1_purav is offline Newbie
    Join Date
    Apr 2006
    Posts
    5

    Thumbs up

    excellent bro ,thnxzzzzzzzzzzzzzzzzzzzzzzzzzzzzzz n times

  9. #9
    arjundev007 is offline Newbie
    Join Date
    Dec 2009
    Posts
    26
    man that was great...i just started learning guitar and i really enjoyed playing this song

  10. #10
    shaileshh's Avatar
    shaileshh is offline Beginner
    Join Date
    Oct 2007
    Posts
    53
    I found this at www.songsandchords.com, but again need strumming pattern

  11. #11
    Join Date
    Dec 2009
    Location
    Kolkata
    Posts
    45
    strumming pattern is very difficult to say in words....the real fun lies in making our own strumming pattern!!!!

  12. #12
    charm always is offline Newbie
    Join Date
    Jul 2009
    Posts
    7
    hi how do u understand da strummin pattern .............plz help

  13. #13
    komal29 is offline Composer
    Join Date
    Sep 2011
    Posts
    622
    Quote Originally Posted by sumantmodak View Post
    Hey Guys,

    Sumant here again, well heared this song just while ago could not resist temptation of tabbing and chording it
    5th latest song submission in 2 day!!!!! Hope you all are finding my work useful
    rep my work if ya like

    Thanks ,






    Song: Ek Pal Ke Liye
    Movie: Ankahee
    Singer: K.K

    |----------------------------------------------------------------------------
    |----------------------------------------------------------------------------
    |----------------------------------------------------------------------------

    Tabs.

    ek pal ke liye hi sahi ghadiya hamko mili makhmali pyar ki
    |----------------------------------------------------------------------------
    |-5-3-5--5-3-5--5-3-5--5-6-p8---3-1-3--3-1-3-1-3-----------------------------
    |----------------------------------------------------------------------------

    iss ek pal ko jee le zara
    |-3-3-3-1-3--0-1-1-----------------------------------------------------------
    |-------------------3-p5-----------------------------------------------------
    |----------------------------------------------------------------------------

    yeh lamhe phir mile na mile kho jaane de sabhi duriya faasale
    |----------------------------------------------------------------------------
    |-5-3-5--5-3-5--5-3-5--5-6-p8---3-1-3--3-1-3-1-3-----------------------------
    |----------------------------------------------------------------------------

    aa dil mila le aur paas aa
    |-3-3-3-1-3--0-1-1-----------------------------------------------------------
    |-------------------3-p5-----------------------------------------------------
    |----------------------------------------------------------------------------

    phir kya ho kya khabar dekha hain kisne kal
    |---------3-1-1--1-1-3-1-0---------------------------------------------------
    |----0-1--------------------3-p5---------------------------------------------
    |-2--------------------------------------------------------------------------

    aa raat rok le phir ho na jaaye sehar
    |----------------------------------------------------------------------------
    |5-6-5-3-1-3--3-5-3-1-3-3-p5-------------------------------------------------
    |----------------------------------------------------------------------------

    phir kya ho kya khabar dekha hain kisne kal
    |---------3-1-1--1-1-3-1-0---------------------------------------------------
    |----0-1--------------------3-p5---------------------------------------------
    |-2--------------------------------------------------------------------------

    aa raat rok le phir ho na jaaye sehar
    |----------------------------------------------------------------------------
    |5-6-5-3-1-3--3-5-3-1-3-3-p5-------------------------------------------------
    |----------------------------------------------------------------------------




    Stanza 1


    kyon takte hain ham baahar khadi fizaayen sard hain
    |-3-3-5-3-3-------3-1-1-0-0--------------------------------------------------
    |----------------------------3-3-5-h6-p5---(play last part fast)-------------------
    |----------------------------------------------------------------------------

    chubhati hain yeh dhadkan dil ki ragon mein phir se dard hain
    |-3-3-5-3-3-------3-1-1-0-0--------------------------------------------------
    |----------------------------3-3-5-h6-p5---(play last part fast)-------------------
    |----------------------------------------------------------------------------

    kitne fasaane tumhe hain sunane abhi toh mila hain waqt zara
    |----7-7-5-5-5-5-7-8-8-p10-3--5-5-5-5-5-4-4--4-5-7-5-------------------------
    |-5--------------------------------------------------------------------------
    |----------------------------------------------------------------------------

    phir kya ho kya khabar dekha hain kisne kal
    |---------3-1-1--1-1-3-1-0---------------------------------------------------
    |----0-1--------------------3-p5---------------------------------------------
    |-2--------------------------------------------------------------------------

    aa raat rok le phir ho na jaaye sehar
    |----------------------------------------------------------------------------
    |5-6-5-3-1-3--3-5-3-1-3-3-p5-------------------------------------------------
    |----------------------------------------------------------------------------

    phir kya ho kya khabar dekha hain kisne kal
    |----------------------------------------------------------------------------
    |5-6-5-3-1-3--3-5-3-1-3-3-p5-------------------------------------------------
    |----------------------------------------------------------------------------

    aa raat rok le phir ho na jaaye sehar
    |----------------------------------------------------------------------------
    |5-6-5-3-1-3--3-5-3-1-3-3-p5-------------------------------------------------
    |----------------------------------------------------------------------------


    Stanza 2 (Play Exactly Like Stanza 1)

    hain khushbu bhari dheemi si roshani charaag ki
    teri hi deewanagi tujhpe fida fida hain har khushi
    palkon se palken zara chhu ke dekh lo
    ismein hai kitna ashq bhara
    phir kya ho kya khabar dekha hain kisne kal
    aa raat rok le phir ho na jaaye sehar
    phir kya ho kya khabar dekha hain kisne kal
    aa raat rok le phir ho na jaaye sehar
    ek pal ke liye hi sahi ghadiya hamko mili makhmali pyar ki
    iss ek pal ko jee le zara
    yeh lamhe phir mile na mile kho jaane de sabhi duriya faasale
    aa dil mila le aur paas aa
    phir kya ho kya khabar dekha hain kisne kal
    aa raat rok le phir ho na jaaye sehar
    phir kya ho kya khabar dekha hain kisne kal
    aa raat rok le phir ho na jaaye sehar



    Chords For Song: Ek Pal Ke Liye

    Em.............................D
    ek pal ke liye hi sahi ghadiya hamko mili makhmali pyar ki
    C..............................Em
    iss ek pal ko jee le zara
    Em.......................................D
    yeh lamhe phir mile na mile kho jaane de sabhi duriya faasale
    C..............................Em
    aa dil mila le aur paas aa

    Am.................................Em
    phir kya ho kya khabar dekha hain kisne kal
    D..........................C.................Em
    aa raat rok le phir ho na jaaye sehar
    Am.................................Em
    phir kya ho kya khabar dekha hain kisne kal
    D..........................C.................Em
    aa raat rok le phir ho na jaaye sehar


    Em..............................C................. ..................Em
    kyon takte hain ham baahar khadi fizaayen sard hain
    Em..............................C................. ..................Em
    chubhati hain yeh dhadkan dil ki ragon mein phir se dard hain
    C.....................D........................... .C......................Em
    kitne fasaane tumhe hain sunane abhi toh mila hain waqt zara

    Am.................................Em
    phir kya ho kya khabar dekha hain kisne kal
    D..........................C.................Em
    aa raat rok le phir ho na jaaye sehar
    Am.................................Em
    phir kya ho kya khabar dekha hain kisne kal
    Am.................................Em
    aa raat rok le phir ho na jaaye sehar



    Stanza 2 (Play Exactly Like Stanza1)

    hain khushbu bhari dheemi si roshani charaag ki
    teri hi deewanagi tujhpe fida fida hain har khushi
    palkon se palken zara chhu ke dekh lo
    ismein hai kitna ashq bhara
    phir kya ho kya khabar dekha hain kisne kal
    aa raat rok le phir ho na jaaye sehar
    phir kya ho kya khabar dekha hain kisne kal
    aa raat rok le phir ho na jaaye sehar
    ek pal ke liye hi sahi ghadiya hamko mili makhmali pyar ki
    iss ek pal ko jee le zara
    yeh lamhe phir mile na mile kho jaane de sabhi duriya faasale
    aa dil mila le aur paas aa
    phir kya ho kya khabar dekha hain kisne kal
    aa raat rok le phir ho na jaaye sehar
    phir kya ho kya khabar dekha hain kisne kal
    aa raat rok le phir ho na jaaye sehar


    (Iam working on riff that plays between stanza if i get it i will post it later!)

    Thanks For Taking Time In Reading my Post
    Comments Suggestions & Criticisms are welcome with open heart!
    Thanks Again
    thanks for the chords..It is the only post for the song..n sounds perfect as well ..well i just used a DU DU DU strum,maintaining the tempo according to the song..that should be enough to make the listeners head groove..coz it sounded awsome..i guess thats why they say beauty lies in simple stuff ..if there are any other versions by any other experts plz post it..

 

 

Similar Threads

  1. Fanaa: Chand Sifarish(Subhaan Allah) Tabs + Chords Submitted!!!!Fast Submission Again
    By sumantmodak in forum Hindi Guitar Tabs - Submit or Request
    Replies: 58
    Last Post: 12-06-2011, 02:36 PM
  2. Hindi Chords & Tabs Submitted By AMIT82CSE
    By amit82cse in forum Hindi Guitar Tabs - Submit or Request
    Replies: 361
    Last Post: 08-29-2009, 12:46 PM
  3. SUB: Ek Pal Ke Liye - Ankahee
    By alind105 in forum Hindi Guitar Tabs - Submit or Request
    Replies: 0
    Last Post: 01-04-2007, 12:05 PM
  4. Ankahee Title Song Chrds SUBMITTED.
    By joe_frost_13 in forum Hindi Guitar Tabs - Submit or Request
    Replies: 0
    Last Post: 06-17-2006, 10:03 AM
  5. .::Ek pal ke liye - Ankahee (2006)::.
    By amit82cse in forum IGT Soundtrack - Your Band, Your Gig, Your Music
    Replies: 3
    Last Post: 06-05-2006, 07:08 PM

Bookmarks

Posting Permissions

  • You may not post new threads
  • You may not post replies
  • You may not post attachments
  • You may not edit your posts
  •  
Single Sign On provided by vBSSO