Follow Us On Follow us on Facebook Follow us on Twitter Watch us on YouTube
Register
Results 1 to 9 of 9

Thread: Airtel Tabs

  1. #1
    tipo is offline Newbie
    Join Date
    Nov 2004
    Posts
    8

    Smile Airtel Tabs

    hi to all the members of IGT this is my first post
    i hope it is right and plz send me replies


    E--------------10------------------------
    B------------------10--11--10----------10
    G--12--12--12------------------12--10--
    D----------------------------------------
    A----------------------------------------
    E----------------------------------------


    E------------------------------------------
    B------10--------------10--11--10------------
    G--12------12--10--12--------------12--10----
    D------------------------------------------12-
    A--------------------------------------------
    E--------------------------------------------


    E--15--12--13--12----------------------10--11------------------
    B------------------13--11------11--13----------13--11--10------
    G--------------------------12------------------------------12--
    D--------------------------------------------------------------
    A--------------------------------------------------------------
    E--------------------------------------------------------------


    E--------------------------------------
    B------10--11--11--11--11--10----------
    G--12--------------------------10--12--
    D--------------------------------------
    A--------------------------------------
    E--------------------------------------

  2. #2
    DesiPride143's Avatar
    DesiPride143 is offline BEHAVE!
    Join Date
    Nov 2003
    Location
    Boston, USA
    Posts
    454
    very nice...dude...sets the mood....it perfect...nice job...

    aziz
    Life Sux and U Die!!!

  3. #3
    anuranjan's Avatar
    anuranjan is offline Newbie
    Join Date
    Dec 2004
    Location
    kolkata
    Posts
    39
    Works well .......... good first post

  4. #4
    ananya's Avatar
    ananya is offline Newbie
    Join Date
    Dec 2004
    Location
    Hyderabad
    Posts
    19
    hey!! a change in the tab.

    E--15--10--13--10----------------------10--11------------------
    B------------------13--11------11--13----------13--11--10------
    G--------------------------12------------------------------12--
    D--------------------------------------------------------------
    A--------------------------------------------------------------
    E-------------------------------------------------------------

    instead of 12 in the e string,10 wud sound better.

  5. #5
    jacko's Avatar
    jacko is offline Beginner
    Join Date
    Oct 2004
    Location
    india
    Posts
    67
    hey tipo

    ur tabs r really good

    jacko
    life
    live it in stryde

  6. #6
    raghul1989 is offline Newbie
    Join Date
    Oct 2009
    Posts
    1

    Talking

    really thanks man this is great!!! i know this is an old thread but still i wish to thanks the poster..

  7. #7
    chatty_arko's Avatar
    chatty_arko is offline Tabber
    Join Date
    May 2006
    Location
    pune
    Posts
    253
    lovely ...............
    broken heart made my music more lovely n helped me win prizes

  8. #8
    Join Date
    Oct 2009
    Posts
    2
    Try this one made by me ... Quite easy ..
    E-------------11-----------------------------------------------------------
    b----9--9--9-----11-12-11-9------11--9-11-9-----9--11--12--11-9---------
    g------------------------------11--------------11------------------11---8-
    d--------------------------------------------------------------------------
    a--------------------------------------------------------------------------
    e--------------------------------------------------------------------------

  9. #9
    chatty_arko's Avatar
    chatty_arko is offline Tabber
    Join Date
    May 2006
    Location
    pune
    Posts
    253
    stop copy paste work
    broken heart made my music more lovely n helped me win prizes

 

 

Similar Threads

  1. tabs to AIRTEL theme<a r rehman>..
    By naNti in forum Hindi Guitar Tabs - Submit or Request
    Replies: 4
    Last Post: 07-07-2010, 10:30 PM
  2. MY TAB--- riff in the airtel add...
    By fat_kax in forum Hindi Guitar Tabs - Submit or Request
    Replies: 3
    Last Post: 01-12-2006, 05:26 PM
  3. AirTel
    By J.J in forum Hindi Guitar Tabs - Submit or Request
    Replies: 3
    Last Post: 04-11-2005, 10:05 PM
  4. AirTel
    By J.J in forum Hindi Guitar Tabs - Submit or Request
    Replies: 0
    Last Post: 04-10-2005, 11:38 PM
  5. Airtel Tabs
    By Mudit Malhotra in forum Hindi Guitar Tabs - Submit or Request
    Replies: 2
    Last Post: 11-09-2004, 06:08 PM

Bookmarks

Posting Permissions

  • You may not post new threads
  • You may not post replies
  • You may not post attachments
  • You may not edit your posts
  •  
Single Sign On provided by vBSSO