Follow Us On Follow us on Facebook Follow us on Twitter Watch us on YouTube
Register
Results 1 to 2 of 2
  1. #1
    VisOrchestraGrp is offline Pro Tabber
    Join Date
    Oct 2006
    Posts
    432

    Smile Ae Maalik Tere Bande Hum :2 Aankhen 12 Haath

    Friends ,
    Some Of You Guys Want Guitar Format Of This Song While Some
    Other Wants Normal Tabs (piano Tabs That I Submitted Earlier )
    So I Have Decided To Submit Both Form Of Tabs At The Same Time
    After That Song .

    Ae Maalik Tere Bande Hum
    E |-----5--5--5-4--1--2--4--------
    B |--2-----------------------------

    Aaise Ho Hamaare Karam
    E |--4-4--2--2-5--4--2--2-4--2-1-------

    Naeki Par Chalein Aur Badii Se Talen
    B |--2--0--2--2-5-3-2--------- (repeat This Line Twice )

    Taaki Hanste Hue Nikle Dum
    E |-------5-5--4--2--2-4-1--2-------
    B |--2-2-----------------------------

    Stanza :-------

    Ye Andhera Ghana Chaa Raha
    E |--------------------------2-----
    G |--6-6--4--6--4-2--4--2---------

    Tera Insaan Ghabra Raha
    E |--2-2----2-2-----2--------------
    B |-------5------5-----5-2---------

    Ho Raha Bekhabar Kuch Na Aata Nazar
    E |----2-4-------4------------------( Repeat )
    B |--5------------------------------( These Lines )
    G |---------6-4---------------------( Twice )



    Sukh Ka Suraj Chuppa Jaa Raha
    E |----2-4-4--2-----2----------------
    B |--5-----------5-----5--2----------

    All The Other Lines Will Be Played In The Same Manner .
    If You Still Found Any Difficulty In Playing The Tabs .
    Please Tell Me .
    I Will Try To Solve Your Problem .
    ...................................*************.. .........................................

  2. #2
    VisOrchestraGrp is offline Pro Tabber
    Join Date
    Oct 2006
    Posts
    432

    Smile Ae Maalik Tere Bande Hum :2 Aankhen 12 Haath

    Friends ,
    THERE IS SOMETHING WRONG WITH THE STANZA OF THAT SONG.
    HERE IS THE CORRECT VERSION -
    Some Of You Guys Want Guitar Format Of This Song While Some
    Other Wants Normal Tabs (piano Tabs That I Submitted Earlier )
    So I Have Decided To Submit Both Form Of Tabs At The Same Time
    After That Song .

    Ae Maalik Tere Bande Hum
    E |-----5--5--5-4--1--2--4--------
    B |--2-----------------------------

    Aaise Ho Hamaare Karam
    E |--4-4--2--2-5--4--2--2-4--2-1-------

    Naeki Par Chalein Aur Badii Se Talen
    B |--2--0--2--2-5-3-2--------- (repeat This Line Twice )

    Taaki Hanste Hue Nikle Dum
    E |-------5-5--4--2--2-4-1--2-------
    B |--2-2-----------------------------

    Stanza :-------

    Ye Andhera Ghana Chaa Raha
    E |--9--9-7-9-7--5--7-5-2-----------


    Tera Insaan Ghabra Raha
    E |--2-2----2-2-----2--------------
    B |-------5------5-----5-2---------

    Ho Raha Bekhabar Kuch Na Aata Nazar
    E |----2-4--9--7--4----------------( Repeat THESE)
    B |--5------------------------------( Lines TWICE )




    Sukh Ka Suraj Chuppa Jaa Raha
    E |----2-4-4--2-----2----------------
    B |--5-----------5-----5--2----------

    All The Other Lines Will Be Played In The Same Manner .
    If You Still Found Any Difficulty In Playing The Tabs .
    Please Tell Me .
    I Will Try To Solve Your Problem .
    ...................................*************.. .........................................

 

 

Similar Threads

  1. Notations of mera haath mein tera haath ho from fanaa [lead notations]
    By purvi in forum Hindi Guitar Tabs - Submit or Request
    Replies: 2
    Last Post: 08-06-2008, 08:38 PM
  2. Ae Maalik Tere Bande Hum : 2 Aankhen 12 Haath
    By VisOrchestraGrp in forum Hindi Guitar Tabs - Submit or Request
    Replies: 3
    Last Post: 05-02-2007, 12:35 PM
  3. Tabs n chords for mere haath mein tere haath hain
    By shobiz27 in forum Hindi Guitar Tabs - Submit or Request
    Replies: 2
    Last Post: 06-18-2006, 08:29 PM
  4. Req:Aankhen by Strings
    By Rohan in forum Hindi Guitar Tabs - Submit or Request
    Replies: 3
    Last Post: 02-27-2006, 04:04 PM
  5. aankhen bhi hoti
    By abhimanjrekar in forum Hindi Lyrics - Submit or Request
    Replies: 0
    Last Post: 11-09-2005, 10:37 AM

Bookmarks

Posting Permissions

  • You may not post new threads
  • You may not post replies
  • You may not post attachments
  • You may not edit your posts
  •  
Single Sign On provided by vBSSO