Follow Us On Follow us on Facebook Follow us on Twitter Watch us on YouTube
Register
Results 1 to 15 of 15
  1. #1
    john1903 is offline Newbie
    Join Date
    Sep 2012
    Posts
    13

    req:Aashiqui 2 -tum hi ho guitar tabs

    Can anyone plz post the guitar tabs of the song 'tum hi ho' from the movie 'Aashiqui 2'?
    Thanks

  2. #2
    hatimguitarist's Avatar
    hatimguitarist is offline Guitarist
    Join Date
    Dec 2011
    Posts
    123
    Sure m working on it
    Quote Originally Posted by john1903 View Post
    Can anyone plz post the guitar tabs of the song 'tum hi ho' from the movie 'Aashiqui 2'?
    Thanks
    Proud to be a contributor of tabandchord.com and IGT
    check out my more hindi songs tabs on: http://tabandchord.com/

  3. #3
    gcoolboy is offline Guitarist
    Join Date
    Jan 2012
    Posts
    136
    Check it on below link and please let me know if you like it.
    https://www.youtube.com/watch?v=aUVs...e_gdata_player

  4. #4
    john1903 is offline Newbie
    Join Date
    Sep 2012
    Posts
    13
    thanks guys for your replies and submissions
    I also found the tabs of the song here(they are in the description)-
    https://www.youtube.com/watch?v=LnwHMWP1KkY

    but i tweaked them a little bit(I think it sounds better this way but let me know if u think it needs more changes)-
    The slightly tweaked tabs are as follows-

    E-------5--3----------------------------------------
    B--5----------6----5---3---------3---6---5555-
    G----------------------------5----------------------
    Hum tere bin ab ji nhi sakte




    E--------------------------------------------------
    B--3--3----------3----------3-------------------
    G----------5--------------------5---4--2--4--2

    Tere bina kya wajood mera

    (same for the next 2 lines... tujhse juda aga ho jayenge....)

    E-------------------------------------------------
    B--------3---5---------3---------3---5------3
    G--5------------5------------5-----------5----
    Kyuki tum hi ho, ab tum hi ho


    E----------------------------------------------
    B-------3-----------------------3------------
    G---4------5------4-----5-----------5-----
    D---------------------------------------7--
    Zindagi ab tum hi ho..


    E-------------------------------------------------
    B--------3---5---------3---------3---5------3
    G--5------------5------------5-----------5----
    Mera chain bhi mera dard bhi


    E----------------------------------------------
    B----------3-------------------3------------
    G--2---4-----5----4-----5---------5----
    D-------------------------------------7--
    Meri ashiqui ab tum hi ho.........

  5. #5
    john1903 is offline Newbie
    Join Date
    Sep 2012
    Posts
    13
    nice work 'gcoolboy'!
    would it be possible for u to give me the tabs or submit them here?
    thanks

  6. #6
    gcoolboy is offline Guitarist
    Join Date
    Jan 2012
    Posts
    136
    Quote Originally Posted by john1903 View Post
    nice work 'gcoolboy'!
    would it be possible for u to give me the tabs or submit them here?
    thanks
    Thanks Jhon, and sure i will post tabs here but i m lazy in writing tabs, i keep them in mind instead. It will take time but i will post them.

  7. #7
    pranay787 is offline Newbie
    Join Date
    Oct 2012
    Posts
    1

    Arrow

    Quote Originally Posted by gcoolboy View Post
    Check it on below link and please let me know if you like it.
    https://www.youtube.com/watch?v=aUVs...e_gdata_player
    Can u post tabs of d song

  8. #8
    saurabhhere is offline Beginner
    Join Date
    Apr 2012
    Posts
    68
    @pranay787
    you can get the tabs here bro..
    Tum hi ho aashiqui 2 Guitar tabs beginners

  9. #9
    dhaneshmane's Avatar
    dhaneshmane is offline Newbie
    Join Date
    Feb 2010
    Location
    Mumbai , Kalyan
    Posts
    22
    Nice try john.

    I have tried to play the intro part, here are the tabs for this song. check out the video also to understand how to play this song.

    Video : kyun ke tum hi ho aashiqui 2 guitar cover, tabs, Full aashiqui 2 title song guitar lesson - YouTube
    --------------------------
    Tabs :
    --------------------------

    E|——--1————————————
    B|--1--1—-4--4--2--1———2------1--1
    G|————————----1--3—————-
    Hum tere bin, Ab reh nahi sakte

    G|--3--3----1--3--1--0——-0—--
    D|———————----------1--3—--3--
    Tere bina kya vajoodh mera

    E|——--1————————————
    B|--1--1—-4--4--2--1———2------1--1
    G|————————----1--3—————-
    Tujhse jhuda agar ho jayenge

    G|--3--3----1--3--1--0——-0—--
    D|———————----------1--3—--3--
    Toh khud se hi ho jayenge jhuda

    B|———1—————--1———
    G|--1--3—--1--3—-1--3—--
    Kyunki tum hi ho, Ab tum hi ho

    G|--0--3--1—--0—-0————----
    D|—————————3—--1--3—————-
    Zindagi ab tum hi ho............Melody

    Thanks
    Dhanesh Mane

  10. #10
    Join Date
    Apr 2013
    Posts
    23
    Quote Originally Posted by john1903 View Post
    thanks guys for your replies and submissions
    I also found the tabs of the song here(they are in the description)-
    https://www.youtube.com/watch?v=LnwHMWP1KkY

    but i tweaked them a little bit(I think it sounds better this way but let me know if u think it needs more changes)-
    The slightly tweaked tabs are as follows-

    E-------5--3----------------------------------------
    B--5----------6----5---3---------3---6---5555-
    G----------------------------5----------------------
    Hum tere bin ab ji nhi sakte




    E--------------------------------------------------
    B--3--3----------3----------3-------------------
    G----------5--------------------5---4--2--4--2

    Tere bina kya wajood mera

    (same for the next 2 lines... tujhse juda aga ho jayenge....)

    E-------------------------------------------------
    B--------3---5---------3---------3---5------3
    G--5------------5------------5-----------5----
    Kyuki tum hi ho, ab tum hi ho


    E----------------------------------------------
    B-------3-----------------------3------------
    G---4------5------4-----5-----------5-----
    D---------------------------------------7--
    Zindagi ab tum hi ho..


    E-------------------------------------------------
    B--------3---5---------3---------3---5------3
    G--5------------5------------5-----------5----
    Mera chain bhi mera dard bhi


    E----------------------------------------------
    B----------3-------------------3------------
    G--2---4-----5----4-----5---------5----
    D-------------------------------------7--
    Meri ashiqui ab tum hi ho.........
    nyc effort.
    if u want more simple tabs den go to dis blog
    guitar lovers
    dere is a vdo also for yor help. njoy dis guys.

  11. #11
    Join Date
    Apr 2013
    Posts
    23
    more simple tabs for ab tum hi ho by me. go to dis link. njoy dis.
    guitar lovers: tabs for song "ham tere bin ab rah nahi sakte.."

  12. #12
    dhaneshmane's Avatar
    dhaneshmane is offline Newbie
    Join Date
    Feb 2010
    Location
    Mumbai , Kalyan
    Posts
    22
    @bhimendra mohan - the one you suggested dsnt sound perfect. try posted by on on top of this thread.

  13. #13
    Join Date
    Apr 2013
    Posts
    23
    i think its sounds gud. u cn also chek d video video-2013-04-21-18-31-47 - YouTube

  14. #14
    juliustalent is offline Guitarist
    Join Date
    May 2013
    Posts
    100
    chk out my version
    Tum Hi Ho-Julius - YouTube

  15. #15
    asif_rox is offline Beginner
    Join Date
    Sep 2005
    Posts
    86
    check our version if need chords do leave a comment

    https://www.youtube.com/watch?v=uCnuP_Qcf3U

 

 

Similar Threads

  1. Tabs for 'Bas ek sanam chahiye' from Aashiqui - Required
    By guitarns in forum Hindi Guitar Tabs - Submit or Request
    Replies: 2
    Last Post: 05-18-2012, 05:39 PM
  2. Aashiqui - sanson ki zaroorat intro tabs
    By dev_go_hel in forum Hindi Guitar Tabs - Submit or Request
    Replies: 0
    Last Post: 01-31-2011, 09:42 PM
  3. Tabs For 'sanso Ki Zarurat Hai'(aashiqui)
    By BILL_RAJPUT in forum Hindi Guitar Tabs - Submit or Request
    Replies: 3
    Last Post: 12-06-2005, 09:40 AM
  4. tu aashiqui tabs and chords..... in urgent need!!!!
    By youthinasia in forum Hindi Guitar Tabs - Submit or Request
    Replies: 7
    Last Post: 08-11-2005, 12:34 AM
  5. Req: Tabs for Tu Aashiqui hai: Jhankar beats
    By i_folonorulz in forum Hindi Guitar Tabs - Submit or Request
    Replies: 0
    Last Post: 01-25-2005, 05:39 PM

Bookmarks

Posting Permissions

  • You may not post new threads
  • You may not post replies
  • You may not post attachments
  • You may not edit your posts
  •  
Single Sign On provided by vBSSO