Follow Us On Follow us on Facebook Follow us on Twitter Watch us on YouTube
Register
Results 1 to 3 of 3
  1. #1
    VisOrchestraGrp is offline Pro Tabber
    Join Date
    Oct 2006
    Posts
    432

    Smile Aap ke Pyar mein : Raaz

    Movie - Raaz

    Aap ke pyar mein hum sawarne lage
    G |------3-2----------2-----------------------------------------------------
    D |--5---------5--3-------5--3----3-1--1-3--------------5----------------
    A |----------------------------------------------5----6---------------------

    Aap se iss kadar humko mohabbat hui
    B |-----------3-------4--3------------------------------3------------------
    G |------3--------5----------5--3-2--------------2-3--------5-3-2---------
    D |--5----------------------------------5-3--3-----------------------5-----

    Toot kar baajuon mein bikharne lage
    G |------3-2----------2-----------------------------------------------------
    D |--5---------5--3-------5--3----3-1--1-3--------------5----------------
    A |----------------------------------------------5----6---------------------

    Aap se iss kadar humko mohabbat hui
    B |-----------3-------4--3------------------------------3------------------
    G |------3--------5----------5--3-2--------------2-3--------5-3-2---------
    D |--5----------------------------------5-3--3-----------------------5-----

    MUSIC :-
    E |--3-2-------3-2--------------------------------------------------------
    B |--------3----------3--------3-3-4--------3-3-4------------------------
    G |------------------------5------------5---------------------------------

    B |--4----------4-----------------3-------------3-------------------------
    G |------5-2--------5-2--2-5-5--------2-5-5------------------------------

    B |------------3----------3-4-3-------------------------------------------
    G |-------3---------5--------------5--3-2---------------------------------
    D |--5---------------------------------------3-5----------3---------------
    A |-------------------------------------------------5-6--------------------

    B |------------3----------3-4-3-------------------------------------------
    G |-------3---------5--------------5--3-2---------------------------------
    D |--5---------------------------------------3-5--------------------------

    STANZA :- ( Lyrics Not Known Properly)

    B |--------------3-3-------4--3-------------------------------------------
    G |---------3----------5-----------5--3-2-------------2-------------------
    D |--5-5-------------------------------------5-3-5---------5-5------------

    B |---------3--------------------------------------------------------------
    G |--3-3--------2--2-2-3----------------2---------------------------------
    D |-------------------------5--5-5-3---------5-5-5------------------------

    Ho........................
    G |--2-----------------------
    D |-------5-3-5--------------

    B |---------3--------------------------------------------------------------
    G |--3-3--------2--2-2-3----------------2---------------------------------
    D |-------------------------5--5-5-3---------5-5-5------------------------

    Ho........................
    G |------------------------2-----------------------------------------------
    D |--3-------------5-3---------3-5-----------------------------------------
    A |-------6-5-6------------------------------------------------------------

  2. #2
    THE HELPER is offline Guitarist
    Join Date
    Jul 2007
    Posts
    105
    Hello ,

    HAPPY NEW YEAR to you n your group .

    You donot post the tabs of song Tumhe jo maine dekha until now.

    Please post it .

  3. #3
    vicky tiwari is offline Newbie
    Join Date
    Dec 2008
    Posts
    3
    hello budy can you post me the leads of agar tum mil jao (full notation)

 

 

Similar Threads

  1. Gum Hai Kisi Ke Pyar Mein
    By preezer369 in forum Hindi Guitar Tabs - Submit or Request
    Replies: 20
    Last Post: 12-27-2012, 12:54 AM
  2. submit --leads for apke pyar me hum from raaz
    By bhaskar anand in forum Hindi Guitar Tabs - Submit or Request
    Replies: 0
    Last Post: 06-01-2008, 10:48 PM
  3. Gum Hai Kisike Pyar Mein
    By Ankur_Scorpio in forum IGT Soundtrack - Your Band, Your Gig, Your Music
    Replies: 7
    Last Post: 07-09-2006, 11:10 AM
  4. Mere rang mein rangne waali-mein ne pyar kiya
    By basit_jaaaani in forum Hindi Guitar Tabs - Submit or Request
    Replies: 1
    Last Post: 06-15-2006, 10:45 AM
  5. Pyar Se Pyar - Raaz (Non-Guitar)
    By rizaaj in forum IGT Soundtrack - Your Band, Your Gig, Your Music
    Replies: 1
    Last Post: 12-30-2005, 04:43 AM

Bookmarks

Posting Permissions

  • You may not post new threads
  • You may not post replies
  • You may not post attachments
  • You may not edit your posts
  •  
Single Sign On provided by vBSSO