Follow Us On Follow us on Facebook Follow us on Twitter Watch us on YouTube
Register
Results 1 to 3 of 3
  1. #1
    jazzbox's Avatar
    jazzbox is offline His X Ln C 1000CC
    Join Date
    Jan 2006
    Location
    karachi, pakistan
    Posts
    447

    [Chords Submit] Dil ki Tanhai ko - Chahhat

    Song: Dil ki Tanhai ko
    Movie: Chahat

    Code:
    d[F#]il ki tanhai ko aw[G]az bana le[E]te hain
    
    d[F#]ard jab h[D]ad se guz[C]arta hai tu g[F]aa lete hain
    
    oh gaa l[E]ete hain h[D]mm hmm h[F#]mmmm h[C]mmm hmmmm
    
    ap[E]kay sheher main hum leke wafa a[D]ye hain .. 
    
    muf[F#]lisi ma[G]in bhi ame[D]ri ki ada l[E]ay hain 
    
    muf[E]lisi main bhi am[D]eri ki ada l[F#]ay hain
    
    
    This part is originally played by flute 
    you can play on guitar like this....
    
    
    E|-------------------------------------------------------|
    A|-------------------------------------------------------|
    D|-------------------------------------------------------|
    G|---------------------3-3---------------------------------|
    B|-2-222-2-3-2-2-23-23-----0-2--------------------------------------|
    E|-------------------------------------------------------|
    
    
    
    E|-------------------------------------------------------|
    A|-------------------------------------------------------|
    D|-------------------------------------------------------|
    G|-------------------------------------------------------|
    B|-----3-1-33-1-3-----0---3-1-1------------------------------------|
    E|-2-0------------1-1---1-------------------------------------|
    
    
    husn walon main yeh mash-horr hai adat apni
    
    har kisi se kahan milti hai tabyat apni ..
    
    har kisi se kahan milti hai tabyat apni ..
    
    hoo pyar milta hai jahan sar ko jhula lete hain ..
    
    
    
    dard jab had se guzarta hai tu ga lete hain
    ***Music is love in search of a word. ~Sidney Lanier

    [U]SoundClick Page[/U]
    https://www.soundclick.com/shiwaaz

    [U]Group[/U]
    http://www.indianguitartabs.com/group.php?groupid=16

  2. #2
    vis_sneh04 is offline Newbie
    Join Date
    Jan 2008
    Posts
    1
    Hi every one

  3. #3
    jazzbox's Avatar
    jazzbox is offline His X Ln C 1000CC
    Join Date
    Jan 2006
    Location
    karachi, pakistan
    Posts
    447
    Quote Originally Posted by vis_sneh04
    Hi every one

    hi mate h r u?
    ***Music is love in search of a word. ~Sidney Lanier

    [U]SoundClick Page[/U]
    https://www.soundclick.com/shiwaaz

    [U]Group[/U]
    http://www.indianguitartabs.com/group.php?groupid=16

 

 

Similar Threads

  1. Req: Tabs and chords of Tanhai Mein Basi
    By Ankitad in forum Hindi Guitar Tabs - Submit or Request
    Replies: 12
    Last Post: 03-26-2011, 02:24 PM
  2. Request Chords and tabs Tanhai by Rooh
    By always_guitar in forum Pakistani Guitar Tabs - Submit or Request
    Replies: 0
    Last Post: 10-17-2006, 06:13 AM
  3. Tanhai mein Chayen Guitar Chords
    By rohailsak in forum Pakistani Guitar Tabs - Submit or Request
    Replies: 1
    Last Post: 08-11-2005, 02:26 AM
  4. REQ: Lucky Ali - Kaisi Tanhai
    By anujroy in forum Hindi Guitar Tabs - Submit or Request
    Replies: 0
    Last Post: 01-08-2004, 09:29 PM
  5. Request "Mujhko is raat ki tanhai mein" chords
    By cshe108 in forum Hindi Guitar Tabs - Submit or Request
    Replies: 0
    Last Post: 10-23-2003, 10:44 AM

Bookmarks

Posting Permissions

  • You may not post new threads
  • You may not post replies
  • You may not post attachments
  • You may not edit your posts
  •  
Single Sign On provided by vBSSO