Follow Us On Follow us on Facebook Follow us on Twitter Watch us on YouTube
Register
Results 1 to 10 of 10
  1. #1
    buddy is offline Newbie
    Join Date
    Jun 2006
    Location
    hyderabad
    Posts
    8

    Thumbs up Req: Tabs for naa autograph song is mounamgane edagamani

    hi guys im a newbie in IGT . i feel great now that i m a member of this site.guys i need a lot of help from u all.hope so u all will help. theres a great song in naa autograph(telugu) that song is mounamgane edagamani .... i want the tabs of that song..

    plz any1 can post for me.byeee.

  2. #2
    pnainani03's Avatar
    pnainani03 is offline Request and I'll tab
    Join Date
    Apr 2006
    Posts
    152
    Welcome to IGT.
    I don't know how to tab that, as I havent heard the song and I dont listen to telegu songs so I'm sorry, I hope someone else can help .

    Paras N.
    Music.

  3. #3
    Jupiter2015 is offline Newbie
    Join Date
    Apr 2015
    Posts
    1
    http://youtu.be/_l5El5n8qmg
    Heres the link to the song. Please can I get the tabs too? Thx

  4. #4
    Join Date
    Aug 2012
    Posts
    347
    Hi.... Thanks for the request.. I might be able to take out some time over the weekend and tab this. If someone else has the time, please do post the tabs.

  5. #5
    Join Date
    Aug 2012
    Posts
    347
    no time to tab and post, but this song plays so well... i am actually finding difficulty in the high notes in the charanam...áslo unable to make out the scale or ragam of the song.

    if you don't really care abotu the techniical aspects of tabbing it , i will post the tabs here in a couple of days.

    please let me know if you can play tabs written with normal notes of c d e f g a b c or you need it in format of strings and fret numbers.

    regards,
    abhay

  6. #6
    Join Date
    Dec 2007
    Posts
    22

    Telugu Guitar Songs

    Find the best collection of latest telugu song's guitar chords and tabs on YouTube channel - 'Telugu Guitar Songs'

    Em Sandehamledu - Guitar Tutorial: https://youtu.be/MpYquz_GsrU

    Request for guitar chords of telugu songs in comments section. We will try our level best to provide the chords.

    Thanks for visiting our channel.
    Like! Share! Subscribe!

  7. #7
    B.Gireesam is offline Newbie
    Join Date
    Apr 2016
    Posts
    6
    E|-
    B|------11-11-11-11-12-14-12-11-9-11h-12-11-9-9-7-9s-11-9
    G|-8-8

    E|---------------------6-
    B|---------9-9-9-7-9---9-7-7----5h-7
    G|-8-8-8----------------------6-8-----8-8-8

  8. #8
    B.Gireesam is offline Newbie
    Join Date
    Apr 2016
    Posts
    6

    Mounamgane edagamani (Na Autograph) Telugu

    E|-
    B|------11-11-11-11-12-14-12-11-9-11h-12-11-9-9-7-9s-11-9
    G|-8-8

    E|---------------------6-
    B|---------9-9-9-7-9---9-7-7----5h-7
    G|-8-8-8----------------------6-8-----8-8-8

  9. #9
    Join Date
    Aug 2012
    Posts
    347
    Nice work Mr Gireesham.
    Did you play by ear ? because the playing seems fine but the song seems to be out of its original key.

    Try this :
    .....MounaM Gaane yedagamani ...........mokka neeku chebuthundhi
    e>------7----7-7----7-8-10-10-8-7-8-----7-8-7--5-7-5-------5-7-5---------------
    B>-5-5------------------------------------------------------8-8---------------------
    G>-------------------------------------------------------------------------------------
    D>-----------------------------------------------------------------------------------
    A>-----------------------------------------------------------------------------------
    E>-----------------------------------------------------------------------------------

    .....ediginakodhdhi odaga .manii ..ardhamandhu lo vundi
    e>--------5-5-5-------5-8--7-5---------------5-------------------------------------------
    B>-5-5-5--------8--8-----------8--------5-6----8--6s5-5-5--------------------------------------
    G>-----------------------------------7-7-------------------------------------------
    D>-------------------------------------------------------------------------------
    A>-------------------------------------------------------------------------------
    E>-------------------------------------------------------------------------------
    regards,
    Abhay

  10. #10
    B.Gireesam is offline Newbie
    Join Date
    Apr 2016
    Posts
    6
    Quote Originally Posted by abhishekmalyala View Post
    Nice work Mr Gireesham.
    Did you play by ear ? because the playing seems fine but the song seems to be out of its original key.

    Try this :
    .....MounaM Gaane yedagamani ...........mokka neeku chebuthundhi
    e>------7----7-7----7-8-10-10-8-7-8-----7-8-7--5-7-5-------5-7-5---------------
    B>-5-5------------------------------------------------------8-8---------------------
    G>-------------------------------------------------------------------------------------
    D>-----------------------------------------------------------------------------------
    A>-----------------------------------------------------------------------------------
    E>-----------------------------------------------------------------------------------

    .....ediginakodhdhi odaga .manii ..ardhamandhu lo vundi
    e>--------5-5-5-------5-8--7-5---------------5-------------------------------------------
    B>-5-5-5--------8--8-----------8--------5-6----8--6s5-5-5--------------------------------------
    G>-----------------------------------7-7-------------------------------------------
    D>-------------------------------------------------------------------------------
    A>-------------------------------------------------------------------------------
    E>-------------------------------------------------------------------------------
    regards,
    Abhay

    Hello Abhay, I just made it in 2-3 mins after seeing the Tab request,
    Ur version is much easier, whereaI I had played on the higher octaves. But should be played bit fast (combined notes)
    Thanks,
    Gireesam

 

 

Similar Threads

  1. Churaliya - Yaadon Ki Baarat - Intro Tabs, Song Chords, Interlude Tabs
    By Bandbaaja in forum Hindi Guitar Tabs - Submit or Request
    Replies: 75
    Last Post: 04-12-2016, 11:39 PM
  2. Pal Pal Dil Ke Paas - Blackmail - Intro tabs, Song Chords and Interlude tabs
    By Bandbaaja in forum Hindi Guitar Tabs - Submit or Request
    Replies: 28
    Last Post: 03-17-2016, 02:35 PM
  3. tabs for this song
    By rssrik in forum Tamil Guitar Tabs - Submit or Request
    Replies: 0
    Last Post: 09-21-2008, 12:54 PM
  4. a few song tabs
    By sahilisahunk in forum Hindi Guitar Tabs - Submit or Request
    Replies: 0
    Last Post: 07-28-2006, 09:49 AM
  5. chords n tabs for Song: woh pehli baar song musu musu hasin deo ma
    By thegame9892 in forum Hindi Guitar Tabs - Submit or Request
    Replies: 1
    Last Post: 07-16-2006, 11:02 PM

Bookmarks

Posting Permissions

  • You may not post new threads
  • You may not post replies
  • You may not post attachments
  • You may not edit your posts
  •  
Single Sign On provided by vBSSO