Follow Us On Follow us on Facebook Follow us on Twitter Watch us on YouTube
Register
Results 1 to 2 of 2
  1. #1
    Join Date
    Sep 2007
    Posts
    3

    Thumbs up Gulabi ( Telugu) - Eevelalo neenu Tabs

    Film : Gulabi ( Telugu)
    Song : Eevelao neevu
    h-hammer
    / - slide
    s - sustain

    Intro music

    E--------------------------------------------------------
    B---2----------------------------------------------------
    G------4--2--4---------4--2--1--2----------------------
    D-4------------------2------------------------------------
    A--------------------------------------------------------

    E--------------------------------------------------------
    B-------------------------------------------------------
    G----2--2--4--1-----------------1------1--------------
    D-----------------------4--2--2-----2------4----------
    A-4-----------------------------------------------------
    E--------------------------------------------------------

    E--------------------------------------------------------
    B-------------------------------------------------------
    G--3/5/3--3----3--1--3/5/33------------------------
    D-------------------------------------------------------


    Pallavi
    E------8-8-8/6-------------------------6/8/6----------
    B-----------------8-6/4-4----4-4-6-8--------8-6-----
    G-10------------------------------------------------------
    D-------------------------------------------------------
    ee velalo neevu em chestuvuntavu


    E-------8-8-8/6------------------------6/8/6----------
    B-6-6-------------8-6-4----4-4-6-8---------8-6-----
    G-------------------------------------------------------
    D-------------------------------------------------------
    anukuntu vuntanu pratinimishamu nenu

    E----------------------------------------------------------
    B-9-10-9-7-9-13---13-13----12-13-12-9-7-9-12/7--
    G-----------------------------------------------------------
    D----------------------------------------------------------
    naa gunde ae nado che jaripoindi

    E-----------------------------------------------------------
    B-9-10-9-7-9-13---13-13----12-13-12-9-7-9-12/7--
    G----------------------------------------------------------
    D----------------------------------------------------------
    nee needa gaa mari naa vaipu raanundi

    E-------------------------------------------------------
    B-7-8-6-6-6------------------6/8/6-------------------
    G--------------8-6----6-6-8----------8-6-------------
    D-------------------------------------------------------
    doorana vuntune em maya chesavo

    ee velalo repeats again.

    Will tab rest of the song and post it later.

  2. #2
    dragonwala is offline Newbie
    Join Date
    Apr 2016
    Posts
    1

    Hi , Can i have remaining song tabs please i am really interested to learn ...plzzzz

    Quote Originally Posted by vijay_anand1978 View Post
    Film : Gulabi ( Telugu)
    Song : Eevelao neevu
    h-hammer
    / - slide
    s - sustain

    Intro music

    E--------------------------------------------------------
    B---2----------------------------------------------------
    G------4--2--4---------4--2--1--2----------------------
    D-4------------------2------------------------------------
    A--------------------------------------------------------

    E--------------------------------------------------------
    B-------------------------------------------------------
    G----2--2--4--1-----------------1------1--------------
    D-----------------------4--2--2-----2------4----------
    A-4-----------------------------------------------------
    E--------------------------------------------------------

    E--------------------------------------------------------
    B-------------------------------------------------------
    G--3/5/3--3----3--1--3/5/33------------------------
    D-------------------------------------------------------


    Pallavi
    E------8-8-8/6-------------------------6/8/6----------
    B-----------------8-6/4-4----4-4-6-8--------8-6-----
    G-10------------------------------------------------------
    D-------------------------------------------------------
    ee velalo neevu em chestuvuntavu


    E-------8-8-8/6------------------------6/8/6----------
    B-6-6-------------8-6-4----4-4-6-8---------8-6-----
    G-------------------------------------------------------
    D-------------------------------------------------------
    anukuntu vuntanu pratinimishamu nenu

    E----------------------------------------------------------
    B-9-10-9-7-9-13---13-13----12-13-12-9-7-9-12/7--
    G-----------------------------------------------------------
    D----------------------------------------------------------
    naa gunde ae nado che jaripoindi

    E-----------------------------------------------------------
    B-9-10-9-7-9-13---13-13----12-13-12-9-7-9-12/7--
    G----------------------------------------------------------
    D----------------------------------------------------------
    nee needa gaa mari naa vaipu raanundi

    E-------------------------------------------------------
    B-7-8-6-6-6------------------6/8/6-------------------
    G--------------8-6----6-6-8----------8-6-------------
    D-------------------------------------------------------
    doorana vuntune em maya chesavo

    ee velalo repeats again.

    Will tab rest of the song and post it later.
    Hi , Can i have remaining song tabs please i am really interested to learn ...plzzzz

 

 

Similar Threads

  1. Request any song lead.. Telugu or Tamil.. Telugu preferred ;)
    By guitarbala in forum Tamil Guitar Tabs - Submit or Request
    Replies: 247
    Last Post: 10-08-2016, 10:55 AM
  2. Req: guitar tabs for telugu songs
    By guitar_vj in forum Telugu Guitar Tabs - Submit or Request
    Replies: 23
    Last Post: 03-17-2014, 06:53 AM
  3. Telugu guitar tabs???
    By Vishalviks in forum Telugu Guitar Tabs - Submit or Request
    Replies: 1
    Last Post: 06-11-2011, 06:16 PM
  4. Guitar tabs for gulabi (Telugu ) song??
    By avspavan in forum Telugu Guitar Tabs - Submit or Request
    Replies: 3
    Last Post: 08-23-2007, 06:45 PM
  5. Submission: Telugu Tabs
    By kishore_nittala in forum Telugu Guitar Tabs - Submit or Request
    Replies: 3
    Last Post: 05-04-2007, 12:03 PM

Bookmarks

Posting Permissions

  • You may not post new threads
  • You may not post replies
  • You may not post attachments
  • You may not edit your posts
  •  
Single Sign On provided by vBSSO