Follow Us On Follow us on Facebook Follow us on Twitter Watch us on YouTube
Register
Results 1 to 2 of 2
  1. #1
    anil.rudrangi is offline Newbie
    Join Date
    Jan 2008
    Posts
    6

    Post eto vellipoindi manasu (telugu song)

    E----0---3-2----0-2-------0-0-0-------------------------
    B--0------------------3-0--------------------------------
    G-------------------------------------------------------
    D-------------------------------------------------------
    A--------------------------------------------------------
    E--------------------------------------------------------


    E----0--3--2---------------------------------------------
    B--0-----------3--0--3--1--1---------------------------
    G-------------------------------------------------------
    D-------------------------------------------------------
    A--------------------------------------------------------
    E--------------------------------------------------------

    E---------0--3--8--8-----------0--3--8--8-----------------
    B--1--1------------------1--1----------------------------
    G-------------------------------------------------------
    D-------------------------------------------------------
    A--------------------------------------------------------
    E--------------------------------------------------------

    E--8--8--8--7--5--------5------------0--0----------------
    B---------------------------7--3--0----------------------
    G-------------------------------------------------------
    D-------------------------------------------------------
    A--------------------------------------------------------
    E--------------------------------------------------------

    E-----0--3--2---0--2-------------------------------------
    B--0-------------------3--0--5--5------------------------
    G-------------------------------------------------------
    D-------------------------------------------------------
    A--------------------------------------------------------
    E--------------------------------------------------------

    E--0----0-0-0---2--0------0---0-0-0---2--0----------
    B--------------------------------------------------------
    G-------------------------------------------------------
    D-------------------------------------------------------
    A--------------------------------------------------------
    E--------------------------------------------------------

    E--0---0--0--0---2--3----5--2----------------------------
    B--------------------------------------------------------
    G-------------------------------------------------------
    D-------------------------------------------------------
    A--------------------------------------------------------
    E--------------------------------------------------------


    E-----5--9--7--5----------------5--9--7--5---------------
    B--7----------------7--------7---------------7-----------
    G-------------------------------------------------------
    D-------------------------------------------------------
    A--------------------------------------------------------
    E--------------------------------------------------------


    E---3--3--3----5--2-----------5-2------------------------
    B------------------------------------3--0--5--5----------
    G-------------------------------------------------------
    D-------------------------------------------------------
    A--------------------------------------------------------
    E--------------------------------------------------------


    any changes required in this plz let me know

  2. #2
    y_muralee is offline Beginner
    Join Date
    May 2007
    Posts
    84

    Awesome tabs!

    Awesome tabs brother..Many thx for sharing.Please post any Ilayaraja telugu songs brother.
    Cheers

 

 

Similar Threads

  1. Request any song lead.. Telugu or Tamil.. Telugu preferred ;)
    By guitarbala in forum Tamil Guitar Tabs - Submit or Request
    Replies: 241
    Last Post: 12-25-2013, 06:44 AM
  2. Lingasthakam ( Telugu Song )
    By anil.rudrangi in forum Telugu Guitar Tabs - Submit or Request
    Replies: 4
    Last Post: 05-30-2011, 09:03 PM
  3. telugu song pls
    By sesikiran in forum Telugu Guitar Tabs - Submit or Request
    Replies: 0
    Last Post: 11-28-2007, 10:30 AM
  4. telugu tabs: Eto vellipoindi manasu : ninne pelladatha
    By hemum in forum Telugu Guitar Tabs - Submit or Request
    Replies: 2
    Last Post: 08-24-2007, 12:21 PM
  5. Telugu Song chords
    By srid in forum Telugu Guitar Tabs - Submit or Request
    Replies: 2
    Last Post: 06-21-2007, 01:41 PM

Bookmarks

Posting Permissions

  • You may not post new threads
  • You may not post replies
  • You may not post attachments
  • You may not edit your posts
  •  
Single Sign On provided by vBSSO