Follow Us On Follow us on Facebook Follow us on Twitter Watch us on YouTube
Register
Page 1 of 2 12 LastLast
Results 1 to 15 of 27
  1. #1
    sharath kumar is offline Guitarist
    Join Date
    Nov 2006
    Location
    oman, muscat
    Posts
    55

    Thumbs up Anisutide [ Mungaru male ]Chords & tabs

    Scale Cm
    Intro Guitar Part
    G------7--8-------------------7--7h8-----------
    D--10--------10---9----9h10----------10--9----

    B--6/8--8--6-----------6h8--6------------------
    G-------------8--7--8----------7h8--7----------

    B------------8-9-11-12---
    G-----7-8-10--------------u should play this part very fast
    D--10---------------------

    E--8--10--11--8--7p8----8--10--11--8--7p8-----

    E------6-7--6/8----------------------------------
    B--8-9-----------11--9---9/11--9--8-------------

    E-----------------------------------7-10-8-------
    B-9-8--------------------------8-9---------------
    G-----10-8-7-----------7-8-10-------------------u play this very fast
    D------------10-9-8-10---------------------------

    Keyboard Sax /Cm /G /Cm /G /G# /Fm /G /Cm /
    Than guitar part
    B------------------------8h9-8--
    G-------------7-8-10-12---------
    D-----7-8-10--------------------play fast
    A--10---------------------------

    Keyboard /G /C /
    Song....
    Anisutide.../Cm /Cm /Cm-D# /G# /Cm /Cm /Cm-D# /
    .............../A# /G#-A# /D# /C4 /D# /G# /G /G /
    Anisutide.../Cm /G#-A# /Cm/

    1st BG music Guitar part
    B--11--11--11--11--11/13--8----

    E---------8-10-11-13-11-10-8-------------
    B--8-9-11---------------------11-9----8---play very fast
    G-----------------------------------10-----

    B--9/11--11--11--11--11--13--8---------

    E--------8-10-11-13-10h11-8------------
    B-8-9-11---------------------11-9-8-----play very fast
    G------------------------------------10--

    B--8/9--9--9--9--9--11--9--8-----
    G------------------------------10--

    E-----------8-10--13-11-10-8-------------
    B----8-9-11-------------------11-9-8-6---Last 8notes played like Mendoline
    G-10--------------------------------------

    B-------------------11--9---------------9-------------
    G--10h/12--12--12--------10--10h12-12----10-10/12---

    Keyboard Sax /Cm /G# /D# /G#-A# /Cm /Cm /--/

    Song 1st BGM
    Suriyuva soneyu../Cm -A# /D# /G#-A# /Cm /.....Guitar part
    B--11h13--11--------------------
    G--------------12--10h12--8-----

    Inyara kanasalu..../Cm-A# /D# /G#-A# /Cm-C /...Guitar part
    B----------------11--11/13--11--9---------
    G--8h10--10/12----------------------------

    Poorna Chandira.../Fm /Fm-cm /G /G /....Guitar part
    G--10/12--13--12-10--

    Naakaidi neene.../A# /G#-A# /D# /C4 /--/G# /G /G /

  2. #2
    paranoid13rohan's Avatar
    paranoid13rohan is offline .: iNDiaN iDioT 3.0 :.
    Join Date
    Nov 2005
    Location
    Navi Mumbai, India
    Posts
    1,320
    the song is in which language ???
    Rohan Dasgupta.
    Vocals and Guitars, Concrete Junglee.
    www.myspace.com/concretejungleemusic

  3. #3
    sharath kumar is offline Guitarist
    Join Date
    Nov 2006
    Location
    oman, muscat
    Posts
    55

    Thumbs up Reply

    This Song from Kannada Film Mungaru male

  4. #4
    paranoid13rohan's Avatar
    paranoid13rohan is offline .: iNDiaN iDioT 3.0 :.
    Join Date
    Nov 2005
    Location
    Navi Mumbai, India
    Posts
    1,320
    ^ but dude this is the Hindi Guitar Tabs Forum.
    although i'm not sure if there's a forum for Kannada songs in IGT.
    Rohan Dasgupta.
    Vocals and Guitars, Concrete Junglee.
    www.myspace.com/concretejungleemusic

  5. #5
    Join Date
    Dec 2006
    Location
    KARNATAKA
    Posts
    34
    no dude... no forum for kannada...:( so where to post kannada songs???
    and this song which is posted here is one of the best songs for guitar!!
    ~~~~~~~~~~~~~~~GGG~~~~~~~~~~~~~~~

    **************FIRST LEARN TO PLAY THE MUSIC BY RULES************
    ***************THEN LEARN TO PLAY IT FROM THE HEART******************

  6. #6
    Vijeyez is offline Newbie
    Join Date
    Jul 2006
    Posts
    18
    Good try,

    try my posting @ Mungarina Male

  7. #7
    sharath kumar is offline Guitarist
    Join Date
    Nov 2006
    Location
    oman, muscat
    Posts
    55

    Thumbs up

    Thank u veji. R u tried my Chords ? how is sounding

  8. #8
    vishal_Singh's Avatar
    vishal_Singh is offline Beginner
    Join Date
    Nov 2005
    Posts
    92
    Its creates lots of confusion abt the song as it was a kannada song and posted in Hindi Forum. Can any one of the IGT Peer suggest the eact forum for this song infact it will be a gr8 help for kannadian guys who are in search of more kannadian songs.

  9. #9
    Vijeyez is offline Newbie
    Join Date
    Jul 2006
    Posts
    18
    Vishal,

    Firstly there is nothing called Kannadians (Sounds like canadians) it is kannadigas.

    Secondly, We indians encourage all other foriegn languages like english, pakistani (I'm not saying bad...!) but why do we have to forget our brotherhood?

    Thirdly, forget language listen to music. Check out the great music and try to play on guitar, i'm sure you will never be disappointed..! This song has been sung by none other than 'Sonu Nigam' who an award too for this song as best male singer..!

  10. #10
    Vijeyez is offline Newbie
    Join Date
    Jul 2006
    Posts
    18

  11. #11
    keerthi_msrit is offline Newbie
    Join Date
    Dec 2005
    Posts
    1
    Thanks for the tabs dude.

  12. #12
    ozone's Avatar
    ozone is offline Beginner
    Join Date
    Jul 2006
    Posts
    87
    tabs are perfect dude.... superb thank u.... i have some confusion on the chords though... how do u play ur Cm chord..???

  13. #13
    sudhirbp is offline Newbie
    Join Date
    Jan 2007
    Posts
    9

    Great Job

    Great job. Keep posting kannada songs man...I luv them.

  14. #14
    jae_mhetri's Avatar
    jae_mhetri is offline Newbie
    Join Date
    Jul 2006
    Location
    hellz here
    Posts
    1

    hi

    Goood Work Dude,was Searchin For This Song For Long Time-thanks

  15. #15
    sanguitar is offline Newbie
    Join Date
    Jun 2006
    Posts
    3
    hats off 2 u dude..... dis is my al time fav kannada song....!!

 

 
Page 1 of 2 12 LastLast

Similar Threads

  1. Mungarina Male
    By malatesh in forum Kannada Guitar Tabs - Submit or Request
    Replies: 41
    Last Post: 09-03-2010, 11:52 AM
  2. Mungaru male - tile song
    By ozone in forum Kannada Guitar Tabs - Submit or Request
    Replies: 1
    Last Post: 03-14-2008, 09:37 AM
  3. REQ: Tabs for USKI GALI MEIN PHIR MUJHE EKBAR LE CHALO...MALE VERSION
    By guitar_classic in forum Pakistani Guitar Tabs - Submit or Request
    Replies: 0
    Last Post: 12-04-2006, 12:20 AM
  4. Which is the best male singer
    By Aka Oz in forum Pakistani Guitar Tabs - Submit or Request
    Replies: 31
    Last Post: 10-09-2005, 02:47 AM
  5. Looking for male vocalist
    By rohan_panjiar in forum IGT Soundtrack - Your Band, Your Gig, Your Music
    Replies: 0
    Last Post: 08-19-2005, 11:05 AM

Bookmarks

Posting Permissions

  • You may not post new threads
  • You may not post replies
  • You may not post attachments
  • You may not edit your posts
  •  
Single Sign On provided by vBSSO