Follow Us On Follow us on Facebook Follow us on Twitter Watch us on YouTube
Register
Results 1 to 10 of 10
  1. #1
    lprassanth's Avatar
    lprassanth is offline Beginner
    Join Date
    Apr 2005
    Location
    Chennai
    Posts
    76

    titan watches - theme song

    this is the song that comes in the ad... now the ad is changed to a more pianolike version.. but the actual song that comes in the old ad. is what i suppose beethovan composed..

    play twice
    e-----------------------------------------------
    B-----------------------------------------------
    G-----------------------4----4---7-5-4------
    D---5--4-5--7--5-7------7--------------7---

    e-------------------------------------------------------------------------------
    B------8-8-8-8-7-5-------5-5-5-5-------------------------------------------
    G---------------------7--5------------7-5-4-----5-5-5-5-4-7----4-----------
    D---5-------------------------------------------7----------------5---7-5-4----
    and repeat the first tab once with a slower ending..


    is it ok ???

  2. #2
    khuddusantana's Avatar
    khuddusantana is offline Beginner
    Join Date
    Dec 2005
    Posts
    69
    ahh i jus love this tune .... laa lala laa lalalalalaaaa

  3. #3
    j_necromancer's Avatar
    j_necromancer is offline Guitarist
    Join Date
    Feb 2006
    Location
    Chennai
    Posts
    114

    Titan watch ad theme

    THEME OF TITAN WATCHES....(on c major scale...)


    e ---------------------------------------------------------------
    B ---------------------------------------------------------------
    G ---------------------------0----------------------------------
    D -----------0---0-2--0-2----3-2-0----------------------------------
    A ---3-2-3---3---------------------------------------------------
    E ---------------------------------------------------------------


    e ---------------------------------------------------------------
    B ---------------------------------------------------------------
    G ---------------------------0---------------------------------------
    D ---------- 0----0-2-0-2----3-2-0---------------------------------
    A ---3-2-3---3---------------------------------------------------
    E ---------------------------------------------------------------


    e --------------------------------------------------------------
    B ------1111-0--------------------------------------------------
    G ----------------2-0-------2222-0---------------------0---------------
    D ----------------------3--------------3-2--0-3333-2---------2-0---------
    A ---3--------------------------------------------------------3--------3-2-3---
    E --------------------------------------------------------------

    check this out too, i found in another site! and it sounded a lot better

  4. #4
    gogol's Avatar
    gogol is offline Beginner
    Join Date
    Jul 2005
    Location
    Kolkata
    Posts
    73
    both of the tabs were nice...very nice...keep doing the good things you do!

    Ankur(gogol)
    Don't Fight, Who You Can't Touch!

  5. #5
    gogol's Avatar
    gogol is offline Beginner
    Join Date
    Jul 2005
    Location
    Kolkata
    Posts
    73
    however, can anyone also post the tabs of Dairy Milk theme music
    I mean "Ek Swad hain Zindagi me"

    Ankur
    Don't Fight, Who You Can't Touch!

  6. #6
    flyingbird is offline Beginner
    Join Date
    Aug 2005
    Posts
    79
    hey dudes
    plz any 1 do favour by posting tabs of IDEA (CELL) MUSIC
    IT A VERY GOOD ADD.

  7. #7
    lprassanth's Avatar
    lprassanth is offline Beginner
    Join Date
    Apr 2005
    Location
    Chennai
    Posts
    76
    hey nocromancer.. C maj is a lot easier to play but it sounds to me like i G maj in the actual ad.. BTW G maj tab is mine n can u gimme the link where u found the Cmaj tab... ???

  8. #8
    lprassanth's Avatar
    lprassanth is offline Beginner
    Join Date
    Apr 2005
    Location
    Chennai
    Posts
    76
    reply please @ nacro...

  9. #9
    j_necromancer's Avatar
    j_necromancer is offline Guitarist
    Join Date
    Feb 2006
    Location
    Chennai
    Posts
    114

    Exclamation WEll

    i forgot the sites name yar!!!!

  10. #10
    lprassanth's Avatar
    lprassanth is offline Beginner
    Join Date
    Apr 2005
    Location
    Chennai
    Posts
    76
    wow so much for a long wait.. anyway dude thanks for that version in C maj.. really nice..

 

 

Similar Threads

  1. TITAN Watches - Theme Song
    By lprassanth in forum Hindi Guitar Tabs - Submit or Request
    Replies: 9
    Last Post: 06-21-2011, 09:28 AM
  2. Titan Watches - thene song(C maj)
    By lprassanth in forum English Guitar Tabs - Submit or Request
    Replies: 2
    Last Post: 05-06-2009, 07:44 PM
  3. titan watches - theme song
    By lprassanth in forum English Guitar Tabs - Submit or Request
    Replies: 0
    Last Post: 02-09-2006, 04:32 PM
  4. Titan Watches Theme Music
    By cute_smiles in forum Hindi Guitar Tabs - Submit or Request
    Replies: 5
    Last Post: 08-17-2004, 10:21 PM
  5. Theme of titan watches....
    By Natasia in forum English Guitar Tabs - Submit or Request
    Replies: 3
    Last Post: 02-29-2004, 08:48 AM

Bookmarks

Posting Permissions

  • You may not post new threads
  • You may not post replies
  • You may not post attachments
  • You may not edit your posts
  •  
Single Sign On provided by vBSSO