Follow Us On Follow us on Facebook Follow us on Twitter Watch us on YouTube
Register
Page 1 of 2 12 LastLast
Results 1 to 15 of 22
  1. #1
    Edatharam's Avatar
    Edatharam is offline Newbie
    Join Date
    Sep 2004
    Location
    Cochin
    Posts
    31

    Thmbi Vaa Malayalam song-Tabs

    Song:Thumbi Vaa
    Tabbed By:E E V

    Hi guys this is a classical mal song from the 80's.plz try it and share
    your valuable comments and suggestions.Also requesting all other
    malayalis in the forum to post more mallu tabs and chords.

    Code:
    	B--1--3-4--1-3-1-0-----1--3--4-1-3-1-1--------------
    	G-------------------0---------------------------------
    
             thumbi vaa thumbakudatil thunchathai unjalidam.........
    
    	E--0-0-1----1-0----------0-0-1---1-0-----------------
    	B---------3-----3-1-0----------3-----3---------------
    	G----------------------2------------------------------
    
            aakasha..................sorry dont knw the lyrics correctly
    
    	E------------------------------------------------------
    	B--1--3-4--1-3-1-0-----1--3--4-1-3-1-1---------------
    	G-------------------0----------------------------------
    
    	E--1-1-3--1-3-5--3--1-0----1-1-3--1-3-5-5------------
    	B-----------------------3------------------------------
    	G------------------------------------------------------
    
    	E--1-1-3--1-3-5--3--1-0----1-1-3--1-3-5-5------------
    	B-----------------------3------------------------------
    	G------------------------------------------------------
    Hope you enjoyed it.That's all guys see ya later.
    |G|et |U|p |I|f |T|he |A|larm |R|ings
    E E V

  2. #2
    fais424 is offline Newbie
    Join Date
    Dec 2006
    Posts
    1

    Thumbs up Thanks..

    Good to see tabs of malayalam songs.. Great work dude.. Hope u will post more such malayalam tabs in near future...

  3. #3
    mk_sheby is offline Newbie
    Join Date
    Dec 2005
    Posts
    5
    A classic work from ilayaraja...you done it well mate.

    Thanks for posting.

  4. #4
    Edatharam's Avatar
    Edatharam is offline Newbie
    Join Date
    Sep 2004
    Location
    Cochin
    Posts
    31
    Thank you guys for your support&encouragement.
    rgds eev
    |G|et |U|p |I|f |T|he |A|larm |R|ings
    E E V

  5. #5
    ambush's Avatar
    ambush is offline _RASTA_man_
    Join Date
    Jul 2004
    Posts
    1,078
    B--1--3-4--1-3-1-0-----1--3--4-1-3-1-1--------------
    G-------------------1---------------------------------


    try this correction
    "A signal chain is only as good as the weakest link."

  6. #6
    Join Date
    Mar 2007
    Location
    Cochin
    Posts
    25
    good work.. am a mallu and i was sad when i found that there is no mlayalam thread in this forum.. but now am happy.. good work bro
    ---Swami Praveenananda a.k.a Swami Mottananda...

  7. #7
    sree.rock is offline Newbie
    Join Date
    Apr 2007
    Posts
    33
    keep Goingggggg

    Nice 2 c a malayalam songs hear............

    a lot of thanXX dude.....and gr8 work tooooo

  8. #8
    prabhasuresh is offline Newbie
    Join Date
    Jun 2008
    Posts
    2
    Hello Gentleman,
    Could you please post the rest of this song also? It is a good starter for the new guys like me..and when very far from home town.. Please..

  9. #9
    crazytabs is offline Newbie
    Join Date
    Jul 2008
    Location
    kerala
    Posts
    10

    Cool

    very good job...............................
    adipoli!!!!!!!!

  10. #10
    ajith_124's Avatar
    ajith_124 is offline Newbie
    Join Date
    Apr 2008
    Posts
    2
    superb..thanks a lot!!

  11. #11
    vishi1966 is offline Newbie
    Join Date
    May 2008
    Posts
    23
    Quote Originally Posted by Edatharam
    Song:Thumbi Vaa
    Tabbed By:E E V

    Hi guys this is a classical mal song from the 80's.plz try it and share
    your valuable comments and suggestions.Also requesting all other
    malayalis in the forum to post more mallu tabs and chords.

    Code:
    	B--1--3-4--1-3-1-0-----1--3--4-1-3-1-1--------------
    	G-------------------0---------------------------------
    
             thumbi vaa thumbakudatil thunchathai unjalidam.........
    
    	E--0-0-1----1-0----------0-0-1---1-0-----------------
    	B---------3-----3-1-0----------3-----3---------------
    	G----------------------2------------------------------
    
            aakasha..................sorry dont knw the lyrics correctly
    
    	E------------------------------------------------------
    	B--1--3-4--1-3-1-0-----1--3--4-1-3-1-1---------------
    	G-------------------0----------------------------------
    
    	E--1-1-3--1-3-5--3--1-0----1-1-3--1-3-5-5------------
    	B-----------------------3------------------------------
    	G------------------------------------------------------
    
    	E--1-1-3--1-3-5--3--1-0----1-1-3--1-3-5-5------------
    	B-----------------------3------------------------------
    	G------------------------------------------------------
    Hope you enjoyed it.That's all guys see ya later.

    thanks and good work sachin...waiting for the rest of the song as well as other old malayalam classics..

    thanks once again

    vish

  12. #12
    ny_1618 is offline Newbie
    Join Date
    Feb 2009
    Posts
    5
    Awesome guys, Ilayaraaja at his best. appreciate dis work man...

  13. #13
    nishadmk is offline Newbie
    Join Date
    Aug 2009
    Posts
    2

    please help me

    haii friends.. i would like to learn guitar.where i can find easy indian guitar lessons. suggest me whether it is possible? i dont know anything abt guitar.looking forward to hear.Regards

  14. #14
    sreenuisbusy's Avatar
    sreenuisbusy is offline Guitarist
    Join Date
    Dec 2008
    Location
    kerala
    Posts
    170

    gud wrk

    nice job......

  15. #15
    9884665569 is offline Newbie
    Join Date
    Sep 2009
    Posts
    1
    thank yooo

 

 
Page 1 of 2 12 LastLast

Similar Threads

  1. malayalam song notes
    By anil achari in forum Introduce Yourself
    Replies: 20
    Last Post: 09-09-2013, 07:33 PM
  2. song:-vyshaga sandhye , film :- Nado***attu (malayalam-mohanlal)
    By prajesh in forum Tamil Guitar Tabs - Submit or Request
    Replies: 17
    Last Post: 05-24-2011, 04:40 PM
  3. Notebook-Malayalam movie Song Chords
    By archit in forum Tamil Guitar Tabs - Submit or Request
    Replies: 6
    Last Post: 01-28-2011, 02:18 AM
  4. ShararaandhaL thiri thaaNu - Malayalam song chords
    By andholanam in forum Tamil Guitar Tabs - Submit or Request
    Replies: 4
    Last Post: 09-15-2008, 07:26 PM
  5. Malayalam song!!!!
    By strings25 in forum Tamil Guitar Tabs - Submit or Request
    Replies: 6
    Last Post: 02-12-2006, 05:20 PM

Bookmarks

Posting Permissions

  • You may not post new threads
  • You may not post replies
  • You may not post attachments
  • You may not edit your posts
  •  
Single Sign On provided by vBSSO