Follow Us On Follow us on Facebook Follow us on Twitter Watch us on YouTube
Register
Results 1 to 6 of 6
  1. #1
    cooler is offline Newbie
    Join Date
    Mar 2009
    Posts
    3

    tab notes for en iniya pon nilave

    hi guys...am a beginner in guitar..i can follow tabs n play guitar notes coz am nt familiar with reading notes...i've started playing en iniya pon nilavae's intro lead notes....could somebody tell me how to go about palying the chords for this song...if nt could somebody give me the tab notes for palying this entire song on the guitar without the involvement of chords or strumming?......

  2. #2
    trisha v is offline Newbie
    Join Date
    Mar 2010
    Posts
    5
    hi i am Trisha. i need the chords for En iniya pon nilave too!

  3. #3
    balc11 is offline Newbie
    Join Date
    Apr 2010
    Posts
    1

    Here u go...

    krishnashasankardotcom/2009/08/guitar-notes-for-en-iniya-pon-nilave/

  4. #4
    Join Date
    Sep 2012
    Posts
    3

    Thumbs up

    This is the real intro for en iniya pon nilave song ... Enjoy
    E------3------------- }
    B------4------------- }
    G------5------------- }
    D------5------------- } strum from down to up 1 times ..
    A------3------------- }
    E------3------------- }

    E---------
    B--3-4-3--
    G--------- X2
    D---------
    A-3-------
    E---------

    E----------------1-0-1----------------------1-0-1----------------------
    B---4-3-4----4----------------4-3-4----4-----------------4-3-3-1-------
    G------------------------------------------------------------------3-1---
    D------------------------------------------------------------------------
    A-3--------1-----------1s3--3--------1--------------1s3-----------------
    E--------------1---------------------------1-----------------------------

  5. #5
    Join Date
    Aug 2012
    Posts
    310
    Quote Originally Posted by Loganathan7682 View Post
    This is the real intro for en iniya pon nilave song ... Enjoy
    E------3------------- }
    B------4------------- }
    G------5------------- }
    D------5------------- } strum from down to up 1 times ..
    A------3------------- }
    E------3------------- }

    E---------
    B--3-4-3--
    G--------- X2
    D---------
    A-3-------
    E---------

    E----------------1-0-1----------------------1-0-1----------------------
    B---4-3-4----4----------------4-3-4----4-----------------4-3-3-1-------
    G------------------------------------------------------------------3-1---
    D------------------------------------------------------------------------
    A-3--------1-----------1s3--3--------1--------------1s3-----------------
    E--------------1---------------------------1-----------------------------
    Can you please type your tabs with more space. I can't make out which note comes first Sir,
    Regards,
    Abhay

  6. #6
    pearlmaharajan is offline Pro Tabber
    Join Date
    Jun 2008
    Posts
    553
    please search for the same in this forum... they are already there...

    Quote Originally Posted by cooler View Post
    hi guys...am a beginner in guitar..i can follow tabs n play guitar notes coz am nt familiar with reading notes...i've started playing en iniya pon nilavae's intro lead notes....could somebody tell me how to go about palying the chords for this song...if nt could somebody give me the tab notes for palying this entire song on the guitar without the involvement of chords or strumming?......
    Thanks, Pearl...

    trying to become a Guitartist

 

 

Similar Threads

  1. [REQ]yen iniya pon chords
    By varx in forum Tamil Guitar Tabs - Submit or Request
    Replies: 42
    Last Post: 04-21-2014, 02:17 PM
  2. En Iniya Pon Nilave
    By krschennai in forum Tamil Guitar Tabs - Submit or Request
    Replies: 0
    Last Post: 03-18-2009, 11:44 PM
  3. Requesting chords for En Iniya Pon Nilave
    By vasdeep in forum Tamil Guitar Tabs - Submit or Request
    Replies: 3
    Last Post: 12-26-2008, 01:41 PM
  4. Hi (Nice To Join You, Pl Help finding 'En iniya' Tabs
    By abrap2000 in forum Tamil Guitar Tabs - Submit or Request
    Replies: 3
    Last Post: 11-16-2008, 07:07 PM
  5. [REQ]Nilave Vaa From Mouna Raagam
    By sshriyan in forum Tamil Guitar Tabs - Submit or Request
    Replies: 0
    Last Post: 06-09-2005, 07:08 PM

Bookmarks

Posting Permissions

  • You may not post new threads
  • You may not post replies
  • You may not post attachments
  • You may not edit your posts
  •  
Single Sign On provided by vBSSO