Follow Us On Follow us on Facebook Follow us on Twitter Watch us on YouTube
Register
Page 8 of 17 FirstFirst ... 678910 ... LastLast
Results 106 to 120 of 248
  1. #106
    Nag4king is offline Newbie
    Join Date
    Mar 2009
    Posts
    1

    Smile Hello Everyone

    Am a beginner. I wonder if anyone has tabs for intro music of chilakamma song from Dalapthi and also song.

    Your help in this regard is greatly appreciated.

    -N

    PS: Its my nom-de-plume

  2. #107
    maxho is offline Newbie
    Join Date
    Dec 2007
    Location
    hyderabad
    Posts
    2
    hey guitar bala..i dont find ur messages now a days...
    post a nice telugu guitar oriented song man...keep posting..

    regards praharsha
    PRAHARSHA..;)

  3. #108
    rprasad is offline Newbie
    Join Date
    Mar 2009
    Posts
    2

    Smile Hello Friendsssss

    hiii..this is Rajendra Prasad....im new to IGT...

    hey i need tabs and chords for the song saradaga ee samayam....from the film Vinayakudu....

    thanks in advance......plzzzzzzzzzzzzzzzzzzzzzz

  4. #109
    raju_amet is offline Newbie
    Join Date
    Jan 2009
    Posts
    11
    can anyone post the tabs, which will be played after the humming in the intro.
    nenje nenje song
    rocks...

  5. #110
    rajesht is offline Newbie
    Join Date
    Dec 2008
    Posts
    1
    plz post guitar tabs for vara veena song from vinayakudu movie...!!

    thnks in advance!!!

  6. #111
    Join Date
    Feb 2009
    Posts
    5
    hi dude,,,!!! can u post the guitar tabs of song " NEE KALLATHOTI NAA KALLOKI " from Movie TULASI,,,!!!

  7. #112
    NAVEEN RAJ's Avatar
    NAVEEN RAJ is offline Newbie
    Join Date
    May 2009
    Posts
    2
    hey can u please get give lead for nenje nenje from ayan?

  8. #113
    guitarbala is offline Newbie
    Join Date
    Mar 2008
    Posts
    31
    sure.. i will try posting tabs for the same
    peace..
    bala

  9. #114
    y_muralee is offline Beginner
    Join Date
    May 2007
    Posts
    84

    mellga karagani- varsham

    my attempt--

    mellaga karagani rendu manasula dooram
    e|-2-1-2---2s10-10---222222 2s52-------------------------------------|
    B|--------------------------------------------------|
    G|--------------------------------------------------|
    D|--------------------------------------------------|
    A|--------------------------------------------------|
    E|--------------------------------------------------|

    e|-22 2s12----12 10 9---9h10--9 7 5--55 7s9--------------------------------------|
    B|--------------------------------------------------|
    G|--------------------------------------------------|
    D|--------------------------------------------------|
    A|--------------------------------------------------|
    E|--------------------------------------------------|

    e|10 9 7---9 7 5-----------------------------------------------|
    B|--------------------------------------------------|
    G|--------------------------------------------------|
    D|--------------------------------------------------|
    A|--------------------------------------------------|
    E|--------------------------------------------------|

    e|-2 12 12---9 10 9--7779109 79975--------------------------------------------|
    B|--------------------------------------------------|
    G|--------------------------------------------------|
    D|--------------------------------------------------|
    A|--------------------------------------------------|
    E|--------------------------------------------------|

  10. #115
    Subu_Strums is offline Newbie
    Join Date
    Apr 2009
    Location
    chennai
    Posts
    16

    Question

    Quote Originally Posted by guitarbala View Post
    Hi friends...
    I have been an observer of this site.
    I think there is a dearth for telugu song lead.
    I will try my best to post ...
    hy could yo post pogadhe poghadhe song tabs,etho ondru etho ondru from laysa laysa and ondra rendra aasaigal..i dono much bout d chords...so kindly post..

  11. #116
    upreethi's Avatar
    upreethi is offline Newbie
    Join Date
    Feb 2009
    Posts
    7

    Nenje nenje from ayan - intro

    E -----------------------------------------------------------
    b -3-3-3-3---3-3----3-3-3-3---1----------------------------
    g -------------------------------3-2-2-2-2---2-2---2-2-2-2-
    d -----------------------------------------------------------
    a -----------------------------------------------------------
    e -----------------------------------------------------------



    e ---------------------------------------------------------
    b ---------------------------------------------------------
    g --0-2----3-3-3-3---3-2-2-2-2-----0-0-0-0---------------
    d ------------------3-----------2-3----------2-3--0-0-0-0-
    a ---------------------------------------------------------
    e ----------------------------------------------------------

  12. #117
    upreethi's Avatar
    upreethi is offline Newbie
    Join Date
    Feb 2009
    Posts
    7

    Nenje nenje from Ayan - Intro

    DDDD DD DDDD CBb AAAA AA AAAA BA BbBbBbBb FBb AAAA EF GGGG EF DDDD




    Hope it's fine!

  13. #118
    feelthefire is offline Newbie
    Join Date
    Jun 2009
    Posts
    2
    hey , can u give me the LEAD for a tamil song .. new york nagaram .. if its in telugu also fine .. a.r .rehman song

  14. #119
    Preet_31 is offline Beginner
    Join Date
    Apr 2009
    Location
    Nagpur
    Posts
    76
    Hello friend....
    will u please try for the tabs of song Pudhu vellai mazhai from movie roja.
    i 'll really great thankfull of you

  15. #120
    luckeyjan10 is offline Newbie
    Join Date
    Jun 2009
    Posts
    1
    Awasome Dude Great really great

 

 
Page 8 of 17 FirstFirst ... 678910 ... LastLast

Similar Threads

  1. tabs and chords for popular hits of hindi, telugu and tamil songs
    By karthik_remo in forum Hindi Guitar Tabs - Submit or Request
    Replies: 8
    Last Post: 02-04-2015, 05:48 PM
  2. Request for strumming in song in athadu (telugu movie )?
    By avspavan in forum Telugu Guitar Tabs - Submit or Request
    Replies: 12
    Last Post: 10-22-2012, 02:42 PM
  3. Telugu Guitar Tabs - Submit or Request
    By chsrinivas123 in forum Telugu Guitar Tabs - Submit or Request
    Replies: 14
    Last Post: 08-03-2011, 04:32 PM
  4. REQ: Music frm Abhinandana in Telugu and "kadhal geetham" in tamil
    By chandu15 in forum Tamil Guitar Tabs - Submit or Request
    Replies: 18
    Last Post: 12-11-2010, 08:51 PM
  5. request 4 a telugu song,godavari
    By krissna in forum Telugu Guitar Tabs - Submit or Request
    Replies: 1
    Last Post: 06-05-2007, 11:44 PM

Bookmarks

Posting Permissions

  • You may not post new threads
  • You may not post replies
  • You may not post attachments
  • You may not edit your posts
  •  
Single Sign On provided by vBSSO