Follow Us On Follow us on Facebook Follow us on Twitter Watch us on YouTube
Register
Page 3 of 17 FirstFirst 1234513 ... LastLast
Results 31 to 45 of 248
  1. #31
    y_muralee is offline Beginner
    Join Date
    May 2007
    Posts
    84

    hey bala

    Hey Bala...anything from you brother..I'll happily accept any knowledge from you..I'll wait for your tabs brother.
    Cheers

  2. #32
    raju2626 is offline Newbie
    Join Date
    Feb 2008
    Posts
    10
    thanks for the reply guitar balu.

    playing chord is easy for me. i want to know how to practice so that i can make guitar tabs for the songs.

    and want to play chords for the song how to play it if the chords are given. i want to know this. please reply me. i got lot of questions with the guitar i want to ask u. i want to directly chat with u please. i will give my id [email protected] . please tell me the time when u will come online i will be ready. please reply. i am waiting for ur reply.

  3. #33
    raju2626 is offline Newbie
    Join Date
    Feb 2008
    Posts
    10

    Question

    i want to know how play chords for saawariya film title song.
    saawariya ha haa haaa. tell how to play that

  4. #34
    guitarbala is offline Newbie
    Join Date
    Mar 2008
    Posts
    31
    Movie: Govinda Govinda
    Song: andama anduma

    andamaa andumaa
    g -----2--0------
    d 0--3-------3--2-

    andananTe andamaa
    d -----2-3---2-----0--
    a 0-3-----------3-----


    chaitrama chErumaa
    g -----2---0------
    d 0--3--------3--2-

    chErananTe nyaayamaa
    d -----2-3---2-----0--
    a 0-3-----------3-----

    praaNamunna paiDibomma
    d 0-0-3-3----0-0-3-3-

    parijata pulakomma
    d 0-0-3-3--0-0-3-3---

    paravaSaalu panchavamma
    d -----3-3--------3-3-
    a 2-2-------2-2-------

    paala sandramaa
    g ------------0-1--
    d --0-2----3-------

    aaDumaa paaDumaa mounamE maanukOvamma
    b -----2---0-2-0-----------------------
    g -1-1-----------1---1-------1-----1---
    d ---------------------2-4-----2-4---2-
    peace..
    bala

  5. #35
    y_muralee is offline Beginner
    Join Date
    May 2007
    Posts
    84

    hey bala

    hey many thanks bala.I'll try these..infact I like this song, I am sure it will sound great on guitar..cheers brother

  6. #36
    y_muralee is offline Beginner
    Join Date
    May 2007
    Posts
    84

    Good One !

    Hey Bala..I tried the song and it sounded great man..will wait for the next song fom you..cheers

  7. #37
    y_muralee is offline Beginner
    Join Date
    May 2007
    Posts
    84

    hey bala

    Hey Bala..where r u brother..give some good tabs buddy...waiing for ur reosponse
    Cheers

  8. #38
    dnmahendra is offline Newbie
    Join Date
    Mar 2008
    Posts
    7
    hey guitarbala u have been doing splendid job here.my heartfelt thanks for u.
    i have been searching the net for some gud telugu guitar tabs,finally i found this thread very helpful.plzzz continue posting tabs for telugu songs.
    if u don't mind post tabs from movies criminal,killer and illayaraja's songs

  9. #39
    guitarbala is offline Newbie
    Join Date
    Mar 2008
    Posts
    31

    hi people

    hello,

    I dont know what am I doing these days..
    work is killing my time.....
    I will surely try posting some ilayaraja song...
    peace..
    bala

  10. #40
    dnmahendra is offline Newbie
    Join Date
    Mar 2008
    Posts
    7
    advance thanks bala

  11. #41
    guitarbala is offline Newbie
    Join Date
    Mar 2008
    Posts
    31

    Hi people

    Hi friends,
    I am planning to post a song called Nuvvu Nuvvu from khadgam.
    Is is already there in the tabs??
    If not let me know...
    BTW shall I post this song??
    or shall we go to some other song?
    peace..
    bala

  12. #42
    dnmahendra is offline Newbie
    Join Date
    Mar 2008
    Posts
    7
    post tabs for song swapna venuvedo from movie rovoyi chandamama

  13. #43
    guitarbala is offline Newbie
    Join Date
    Mar 2008
    Posts
    31

    Sorry for the delay

    Movie : Ravoyi Chandamama
    Song : Swapna Venuvedo

    swapna vENu vEdo
    g ---0----3-2-0---
    d 0-------------0-

    sangEtam Ala pinche
    d 0-1--3---1-3--1-0--

    suprabhAtavEla
    g ---0----3-2-0---
    d 0-------------0-

    shubhamasthu gali vEche
    d 0-1--3---1-3--1-0--

    jOdyinA rendu gundela yEka talamO
    b --------------1-------------1-4-3-
    g --0-0----2-3----3-2---2-3---------
    d 0---------------------------------

    jOrainA yavvanAlalo prEma gEthamO
    b --------------1-------------1-4-3-
    g --0-0----2-3----3-2---2-3---------
    d 0---------------------------------

    lE lE thA aa aa pOla bAsalU
    b -4-3---------1-----------------
    g -----5-3-2-3---3-2----2--3-2-0-
    d --------------------3----------

    kA lE vA aa aa chEti rAtalu
    b -4-3---------1-----------------
    g -----5-3-2-3---3-2----2--3-2-0-
    d --------------------3----------
    swapna vENuvEdo....

    nEedeee prA Nam mmm mmm mmmmm
    b ---------------1----------------
    g --3-2-3--3-2-2---3-2--0-2-0-----
    d 0----------------------------3--

    nE ve sar vam mm mmmm mmmm
    g --2-0-2---0-----2-0------------
    d 3-----------3-3------3--2-3-p0-


    nEkai chE sA aa ne ee ee
    b ---------------1----------------
    g --3-2-3--3-2-2---3-2--0-2-0-----
    d 0----------------------------3--

    ven nela jA gA ram
    b -------1-1-3-3-4-3-
    g --2-2--------------
    d 3------------------

    same for (prEma nEnu rEyi pagalU hArAlallE mallelu nE kOsam)

    kOti chukkalU ashTa ***kulU ninnu chUchu ve la
    g ------0-0--0---------2-2-2---------3p2-2--3p2--2-3
    d 0-0-----------0-0------------0-0-----------

    nindu ASalE rendu kannulyi chUste nE rAnA
    b -----------------------------------1---4-3
    g ------0-0-0---------2-2-2----2-3----------
    d 0-0-----------0-0-------------------------


    kA lA lE ee ee AgipOyinA
    b -4-3---------1-----------------
    g -----5-3-2-3---3-2----2--3-2-0-
    d --------------------3----------

    gA rA le ee ee mUga bOvunA
    b -4-3---------1-----------------
    g -----5-3-2-3---3-2----2--3-2-0-
    d --------------------3----------
    peace..
    bala

  14. #44
    guitarbala is offline Newbie
    Join Date
    Mar 2008
    Posts
    31
    Hi Mahendra.

    I hope it is not too late...
    Please post some songs if you know any.
    Let us share it.. Or if you want any..
    post some..

    Muralee,
    Not seeing you these days!!!!
    peace..
    bala

  15. #45
    dnmahendra is offline Newbie
    Join Date
    Mar 2008
    Posts
    7
    thanks a lot very much guitar bala.
    i have tabs for hindi song chura liya very accurate, not like in IGT.
    as i am just 8 months old in guitar.i can't tab for songs.it take some time for me to do that.but i will try doing that.

 

 
Page 3 of 17 FirstFirst 1234513 ... LastLast

Similar Threads

  1. tabs and chords for popular hits of hindi, telugu and tamil songs
    By karthik_remo in forum Hindi Guitar Tabs - Submit or Request
    Replies: 8
    Last Post: 02-04-2015, 05:48 PM
  2. Request for strumming in song in athadu (telugu movie )?
    By avspavan in forum Telugu Guitar Tabs - Submit or Request
    Replies: 12
    Last Post: 10-22-2012, 02:42 PM
  3. Telugu Guitar Tabs - Submit or Request
    By chsrinivas123 in forum Telugu Guitar Tabs - Submit or Request
    Replies: 14
    Last Post: 08-03-2011, 04:32 PM
  4. REQ: Music frm Abhinandana in Telugu and "kadhal geetham" in tamil
    By chandu15 in forum Tamil Guitar Tabs - Submit or Request
    Replies: 18
    Last Post: 12-11-2010, 08:51 PM
  5. request 4 a telugu song,godavari
    By krissna in forum Telugu Guitar Tabs - Submit or Request
    Replies: 1
    Last Post: 06-05-2007, 11:44 PM

Bookmarks

Posting Permissions

  • You may not post new threads
  • You may not post replies
  • You may not post attachments
  • You may not edit your posts
  •  
Single Sign On provided by vBSSO