Follow Us On Follow us on Facebook Follow us on Twitter Watch us on YouTube
Register
Page 12 of 17 FirstFirst ... 21011121314 ... LastLast
Results 166 to 180 of 248
  1. #166
    narendrasv is offline Newbie
    Join Date
    Oct 2009
    Location
    Tirupathi, AP, India
    Posts
    17
    Quote Originally Posted by Rishita View Post
    hey can nyone post tabs 4 neevalle neevalle/unnale unnale & mudhaleenadu/mudhal naal indru...
    thnq
    Here it is from Neevalle Neevalle:

    mrudhu maduramga... mrudhu maduramga
    E------------------------------------------------
    B----5--5--5--5--1-----3--3--3--3-----------
    G-----------------------------------------2-----
    D-----------------------------------------------
    A-----------------------------------------------
    E-----------------------------------------------


    pedavula paina.. parimalamalle ra le va premaaaaaaa

    E-------------------------------------------------------------------
    B--1--1--1--1---3---0--0----------------------------1--0------
    G------------------------------2--0--------2--2--2--------------
    D------------------------------------------------------------------
    A-----------------------------------------------------------------
    E-----------------------------------------------------------------


    oho... tala tala lade talukula tare
    E-----------------------------------------------------------------
    B--1--3-----5--5--5--5--1-----3--3--3--3--------------------
    G-------------------------------------------------2---------------
    D-----------------------------------------------------------------
    A----------------------------------------------------------------
    E----------------------------------------------------------------



    ika pada mantu idi varamantu ......ra le va premaaaaaaaa
    E--------------------------------------------------------------------
    B--1--1--1--1---3---0--0------------------------------1--0------
    G-------------------------------2--0--------2--2--2---------------
    D-------------------------------------------------------------------
    A---------------------------------------------------------------------
    E----------------------------------------------------------------------

  2. #167
    Rishita is offline Newbie
    Join Date
    Dec 2009
    Posts
    3

    Thnq so much...

    do u hav tabs 4 anjali bgm?
    Quote Originally Posted by narendrasv View Post
    Here it is from Neevalle Neevalle:

    mrudhu maduramga... mrudhu maduramga
    E------------------------------------------------
    B----5--5--5--5--1-----3--3--3--3-----------
    G-----------------------------------------2-----
    D-----------------------------------------------
    A-----------------------------------------------
    E-----------------------------------------------


    pedavula paina.. parimalamalle ra le va premaaaaaaa

    E-------------------------------------------------------------------
    B--1--1--1--1---3---0--0----------------------------1--0------
    G------------------------------2--0--------2--2--2--------------
    D------------------------------------------------------------------
    A-----------------------------------------------------------------
    E-----------------------------------------------------------------


    oho... tala tala lade talukula tare
    E-----------------------------------------------------------------
    B--1--3-----5--5--5--5--1-----3--3--3--3--------------------
    G-------------------------------------------------2---------------
    D-----------------------------------------------------------------
    A----------------------------------------------------------------
    E----------------------------------------------------------------



    ika pada mantu idi varamantu ......ra le va premaaaaaaaa
    E--------------------------------------------------------------------
    B--1--1--1--1---3---0--0------------------------------1--0------
    G-------------------------------2--0--------2--2--2---------------
    D-------------------------------------------------------------------
    A---------------------------------------------------------------------
    E----------------------------------------------------------------------

  3. #168
    jsforu is offline Newbie
    Join Date
    Oct 2009
    Posts
    2
    Can some one please post Naloni ponganu narmada from Surya S/O Krishnan?

    I am looking for chords for this song for so long time...

    Any help is appreciated..

  4. #169
    avspavan is offline Newbie
    Join Date
    Oct 2005
    Posts
    17
    Could anyone post tabs and chords for the song "Karige Loga" from Arya-2? http://www.youtube.com/watch?v=AxT0TEgUdIs&NR=1

    Thanks
    Pavan

  5. #170
    narris is offline Newbie
    Join Date
    Jan 2010
    Posts
    2

    thanks for songs

    hi,

    very nice songs with tabs. But very difficult to to each page and search

    can we have some index in first page

    so that we can give link to all songs

  6. #171
    Join Date
    Jul 2009
    Posts
    25

    Cool

    Quote Originally Posted by avspavan View Post
    Could anyone post tabs and chords for the song "Karige Loga" from Arya-2? http://www.youtube.com/watch?v=AxT0TEgUdIs&NR=1

    Thanks
    Pavan
    Hi,

    I know those tabs and chords for that song.
    i will send them soon.

    keep rocking,
    sumanth

  7. #172
    Join Date
    Dec 2007
    Posts
    22

  8. #173
    spywills is offline Newbie
    Join Date
    Feb 2010
    Posts
    1

    Smile intro

    Hi dudes tis is spywills nearing u......................hello

  9. #174
    nanibhai is offline Newbie
    Join Date
    Sep 2007
    Posts
    1

    Req: Manasu Maata Vinadhu : Nuvvu Nijam

    Hi guys,

    I want to learn this song, please can someone post the tabs .... thanks so much

  10. #175
    jobsonkj is offline Newbie
    Join Date
    Mar 2010
    Location
    Hyderabad
    Posts
    4
    happy days tabs were superb.
    i was longing to play it.
    thanks a lot guitarbala

  11. #176
    balu_keyboard is offline Newbie
    Join Date
    Mar 2010
    Posts
    3

    Smile plz i need chords for this 2 songs....plzzz

    priyathama nanu palakarinchu song from jagadekaveerudu athilooka sundariii..................and raasaleela vela song from adithya 369

  12. #177
    rockii is offline Newbie
    Join Date
    Apr 2010
    Posts
    10
    kindly give leading guitar notes for VTV songs(tamil).plsssssssssssssssssssss

  13. #178
    Join Date
    Jun 2009
    Posts
    4
    Hi guys,

    I am learning guitar.
    can some one please post the tabs and chords for complete song Nuvvu..Nuvvu from the movie Khadgam.

    Thanks,

  14. #179
    Join Date
    Jun 2009
    Posts
    4
    Hi makams,

    hope you get the tune of nijamga cheppalante...
    I am also just started learning the guitar.
    I just practiced along with singing the lead part and I got the timing correct.

  15. #180
    guitarbala is offline Newbie
    Join Date
    Mar 2008
    Posts
    31

    Talking Hi.. After a long time..

    Hi people,

    Its been a long time that I touched guitar.
    I am back.. and will try posting some more songs here...

    @ Narris..
    There is no index for the songs here. But you can check my blog to get some tunes..
    Here it is..

    www.king-of-gods.blogspot.com

    Thank you one and all..

    Cheers
    peace..
    bala

 

 
Page 12 of 17 FirstFirst ... 21011121314 ... LastLast

Similar Threads

  1. tabs and chords for popular hits of hindi, telugu and tamil songs
    By karthik_remo in forum Hindi Guitar Tabs - Submit or Request
    Replies: 8
    Last Post: 02-04-2015, 05:48 PM
  2. Request for strumming in song in athadu (telugu movie )?
    By avspavan in forum Telugu Guitar Tabs - Submit or Request
    Replies: 12
    Last Post: 10-22-2012, 02:42 PM
  3. Telugu Guitar Tabs - Submit or Request
    By chsrinivas123 in forum Telugu Guitar Tabs - Submit or Request
    Replies: 14
    Last Post: 08-03-2011, 04:32 PM
  4. REQ: Music frm Abhinandana in Telugu and "kadhal geetham" in tamil
    By chandu15 in forum Tamil Guitar Tabs - Submit or Request
    Replies: 18
    Last Post: 12-11-2010, 08:51 PM
  5. request 4 a telugu song,godavari
    By krissna in forum Telugu Guitar Tabs - Submit or Request
    Replies: 1
    Last Post: 06-05-2007, 11:44 PM

Bookmarks

Posting Permissions

  • You may not post new threads
  • You may not post replies
  • You may not post attachments
  • You may not edit your posts
  •  
Single Sign On provided by vBSSO