Follow Us On Follow us on Facebook Follow us on Twitter Watch us on YouTube
Register
Results 1 to 7 of 7
  1. #1
    faiqrock's Avatar
    faiqrock is offline XaiQ
    Join Date
    May 2005
    Location
    Manchester,England
    Posts
    1,372

    . : Sabh Bhula Key Intro Tabs : .

    Hey guys
    chk This Out just tabbed da Intro of Sab Bhula ke many ppl were talkin Abt Accurate Tabs So here they r...
    Comments and Reps are Welcome
    and ya The Tunning is DADGBD

    Code:
    D|--------0------5-----4-----7----|-----------------7-----5------4----|
    b|--0---0---0------0-----0-----0--|------0---5--------0-----0------0---| 
    g|0---2-------0------0----0-----0-|----6---6---6--------0-----0------0-|
    d|--------------------------------|--7-----------7-------------------|
    a|--------------------------------|----------------------------------|
    D|--------------------------------|----------------------------------|
    
    
    D|------0---------------0-----|----------0---------------0---|
    b|--------0---------0-----0---|------------0---------0-----0--| 
    g|----4-----4-----4---4-----4-|-------6------6-----6---6-----6-|
    d|----------------------------|-----------------------------|
    a|----------------------------|-----------------------------|
    D|-5-----------5--------------|---7-------------7------------|

  2. #2
    RoMeO_Gguru's Avatar
    RoMeO_Gguru is offline .::idiotic crybaby::.
    Join Date
    Mar 2006
    Location
    India - (HINDUSTAN)
    Posts
    253
    fabbbbbbbbbbbbbbuuuuuuuuulllllllllllooooooooooouuu uuuuusssssssss
    "GOOD IS NOT GOOD ENOUGH"

  3. #3
    Join Date
    Sep 2005
    Location
    my chair
    Posts
    1,856
    ohhh need to tune guitar in the dbgad will try after eggjams

  4. #4
    limaj_daas's Avatar
    limaj_daas is offline Guitar Pro Maniac
    Join Date
    Jan 2006
    Location
    Toronto, ON
    Posts
    465
    Nice attempt faiq but i KNOW the song is played on Dadgad... i kno xulfi personally so trust me on this one. the intro by ahmed nadeem on ultimate guitar and on igt is as correct as it gets... if u want it better, add these chords to this:

    D ---------0-----5-----4-----7-----
    A -----0-----0-----0-----0-----0---
    G ---4---4-----4-----4-----4-----4-
    D -5-------------------------------
    A ---------------------------------
    D ---------------------------------

    D ---------0-----7-----5-----4-----
    A -----0-----0-----0-----0-----0---
    G ---6---6-----6-----6-----6-----6-
    D -7-------------------------------
    A ---------------------------------
    D ---------------------------------

    D -----0-------------0------------0-------0-------0-------
    A -------0-------0-----0------0-----0-------0-------0---0-
    G ---4-----4---4---4-----0--6---6-----6-------6-------6---
    D --------------------------------------------------------
    A --------------------------------------------------------
    D -5---------5-------------7------------7-------7---------


    then chord progression of:
    d major, then c major, then g major, then, f sharp minor, then g major

    D on tuning dadgad: 12-12-12-11-0-0
    F#m on tuning dadgad: 4-4-4-2-0-0
    G on tuning dadgad: 5-5-5-4-0-0
    C on tuning dadgad: 10-10-10-9-0-0

    verse riff is just an appareigo of those chords.

    acoustic interlude is the same as verse riff wid a few variations.

    solo u can find on ug...

  5. #5
    faiqrock's Avatar
    faiqrock is offline XaiQ
    Join Date
    May 2005
    Location
    Manchester,England
    Posts
    1,372
    hey limaj I know yar Zulfi played on DADGAD...
    But this 1 is my Version so hehe...
    But da Notes are same

  6. #6
    limaj_daas's Avatar
    limaj_daas is offline Guitar Pro Maniac
    Join Date
    Jan 2006
    Location
    Toronto, ON
    Posts
    465
    hwo can they be the same? u hav to tune ur guitar down to A. it's like playin an open powerchord on standard tuning... imposible right! u hav to hav a drop d tuning right? same case here... 0 on B isn't the same as 0 on A... 2 whole frets worth of higher pitches. And then ur tabs on the G string should remain 6 and 4... which they dont... or maybe that wuz just a typo. good attempt however.

  7. #7
    faiqrock's Avatar
    faiqrock is offline XaiQ
    Join Date
    May 2005
    Location
    Manchester,England
    Posts
    1,372
    OK...Dude...chill
    Thnx ny ways
    bk 2 topic..
    more comments
    @spy: thnx dude for reps

 

 

Similar Threads

  1. Sab Bhula Kai (intro) !!!
    By zainadeel in forum Pakistani Guitar Tabs - Submit or Request
    Replies: 3
    Last Post: 08-16-2006, 01:43 PM
  2. Correct Sab Bhula Kai Intro
    By ahm3d_nad33m in forum Pakistani Guitar Tabs - Submit or Request
    Replies: 12
    Last Post: 04-01-2006, 12:03 PM
  3. sub bhula ke intro
    By saifee in forum Pakistani Guitar Tabs - Submit or Request
    Replies: 4
    Last Post: 03-08-2006, 07:11 PM
  4. sab bhula ke exact intro
    By bctian in forum Pakistani Guitar Tabs - Submit or Request
    Replies: 6
    Last Post: 01-11-2006, 04:44 PM
  5. call - sab bhula kay intro tabs
    By kl12 in forum Pakistani Guitar Tabs - Submit or Request
    Replies: 18
    Last Post: 01-05-2006, 09:49 PM

Bookmarks

Posting Permissions

  • You may not post new threads
  • You may not post replies
  • You may not post attachments
  • You may not edit your posts
  •  
Single Sign On provided by vBSSO