Follow Us On Follow us on Facebook Follow us on Twitter Watch us on YouTube
Register
Page 1 of 3 123 LastLast
Results 1 to 15 of 40
  1. #1
    faiqrock's Avatar
    faiqrock is offline XaiQ
    Join Date
    May 2005
    Location
    Manchester,England
    Posts
    1,373

    Kuch Is Tarah : Atif Aslam Tabs

    Hey guys
    Well back with new tabs and this one was requested by Devil bhai (Devilshly_Pur$)
    This song is on Dm scale

    Download the Attachment


    Code:
    Song: Kuch is tarhan
    Album: Doorie
    Single: Atif Aslam
    Tabbed by Faiq
    
    ************************************************************
    
    Chords:
    Am X02210 
    Bb X13331
    Dm XX0231
    C  x32010
    
    Intro
    e|----12-13-15-13-13------------------------------------|
    b|-13----------------14b15r14-12-14-12-12-10----------------------| 
    g|--------------------------------------------|
    d|--------------------------------------------|
    a|--------------------------------------------|
    e|--------------------------------------------|  
    
    e|-------------|-------------------------------|
    b|-6-----------|-------------------------------|
    g|-----5-------|---------5---------------------|
    d|---7---7-5-7-|--7-8--7---8-7-8---------------|
    a|-------------|-------------------------------|
    e|-------------|-------------------------------|3x
    
    Riff:A
    e|--------1--------3-----------3---------1---------|
    b|------3----------1-----------1-------3-----------|
    g|----2----------2-----------2-------2-------------|
    d|--0----------2-----------2-------0---------------|
    a|-----------0-----------0-------------------------|
    e|-------------------------------------------------|
    
    ************************************************************
    
    Riff:A
    Kuch is tarhan .. teri palkain...meri palkoon sey mila dey
    ansoo terey saree...meri palkoon pe saja dey (2x)
    
    Kuch is tarhan .. teri palkain...meri palkoon sey mila dey
    
    [Piano solo] Then bottom solo on guitar
    
    e|--------------------------------------------|
    b|-11-11-11p10--8--6-6---------------------------------|
    g|---------------------9-9s7---7s5-5s3-3-2-2----------------|
    d|--------------------------------------------|
    a|--------------------------------------------|
    e|--------------------------------------------|  
    
    ************************************************************
    
    Riff:A
    Kuch is tarhan .. teri palkain...meri palkoon sey mila dey
    ansoo terey saree...meri palkoon pe saja dey
    
    
    [SOLO]
    e|---------------------------------------13-13-13-13-13-10-12-10-10----------------------------|
    b|-13-13-13-13-10------------------------------------------------------11-10-------------------|
    g|-----------------14-14p10-12-10-12s14---------------------------------------12-10--9-9-7-5-7-|
    d|-----------------------------------------------------------------------------------------------------|
    a|-----------------------------------------------------------------------------------------------------|
    e|-----------------------------------------------------------------------------------------------------|  
    
    ************************************************************
    -------Dm----------Am-------Bb---------C----
    tu har ghari...har waqt..merey sath raha hai
    
    --------Dm----------Am---------Bb---------C----
    han yeh jisam kabhi dooor...kabhi pass raha hai
    
    --------Dm------------Am----------Bb-------------C----
    joh bhi gham hain yeh terey .. unhain tu mera pata dai.........
    
    
    Riff:A
    Kuch is tarhan .. teri palkain...meri palkoon sey mila dey
    ansoo terey saree...meri palkoon pe saja dey
    
    ************************************************************
    
    ----------Dm--------Am----------Bb--------C----
    mujhko tu terey chehrey pe..yeh gham nahi jajta
    ---Dm------Am---------Bb--------------------C----
    jaaiz nahi laghta..mujhey gham sey yeh tera rishta
    ----Dm-----Am-------Bb----------------C----
    sun meri guzarish..isey chehray sey hata dey
    
    Riff:A
    Kuch is tarhan .. teri palkain...meri palkoon sey mila dey
    ansoo terey saree...meri palkoon pe saja dey
    
    
    e|--------------------------------------------|
    b|s13-11-10-8--(Piano Ending)-----------------|
    g|--------------------------------------------|
    d|--------------------------------------------|
    a|--------------------------------------------|
    e|--------------------------------------------|
    
    ************************************************************
    Attached Files Attached Files
    ...\m/-(--_,)-\m/....Faiq....\m/-(-_-)-\m/...

  2. #2
    Join Date
    Mar 2006
    Location
    New Delhi
    Posts
    972
    thanks faiqu.... .. u deserve to be a mod..

  3. #3
    faiqrock's Avatar
    faiqrock is offline XaiQ
    Join Date
    May 2005
    Location
    Manchester,England
    Posts
    1,373
    ^ :D thankx bro for Gift,comments and Reps :D
    and
    WOW 92 viewed :D and no comments -_-
    ...\m/-(--_,)-\m/....Faiq....\m/-(-_-)-\m/...

  4. #4
    Join Date
    Jan 2006
    Posts
    64
    nicccely done man...one question...is there a chord that you can play instead of doing the riff?? just lookin for easier ways out :P

  5. #5
    faiqrock's Avatar
    faiqrock is offline XaiQ
    Join Date
    May 2005
    Location
    Manchester,England
    Posts
    1,373
    ^ offcourse here try this one
    -------Dm-------------Am--------Am---------Dm----
    Kuch is tarhan .. teri palkain...meri palkoon sey mila dey
    -------Dm----Am-------Am----------Dm----
    ansoo terey saree...meri palkoon pe saja dey
    ...\m/-(--_,)-\m/....Faiq....\m/-(-_-)-\m/...

  6. #6
    Diesel is offline Newbie
    Join Date
    Sep 2005
    Posts
    9
    Thanks for coming up with the notes.

    But struggling to somehow make it sound good on an acoustic. I'm not creative enough to come up with a creative version. Any ideas? A recording from anyone would help.

  7. #7
    sam_guitar's Avatar
    sam_guitar is offline Guitarist
    Join Date
    May 2005
    Location
    Gulberg, Lahore
    Posts
    147
    thaks u dude
    u r superbbbbbbbbbbbbbbbbbbbbbbbbbbbbb
    what who how when why where .... do you have answer

  8. #8
    faiqrock's Avatar
    faiqrock is offline XaiQ
    Join Date
    May 2005
    Location
    Manchester,England
    Posts
    1,373
    thanks diasal and sam

    btw 1,121 viewed and only 4 replies lol
    ...\m/-(--_,)-\m/....Faiq....\m/-(-_-)-\m/...

  9. #9
    born2tab's Avatar
    born2tab is offline rhythm guitarist
    Join Date
    Aug 2005
    Location
    Banglore
    Posts
    776
    kewl bro!!! repped ya

  10. #10
    squreshi is offline Newbie
    Join Date
    Dec 2006
    Location
    LONDON
    Posts
    1

    Thumbs up kucch is teraah

    Quote Originally Posted by faiqrock
    Hey guys
    Well back with new tabs and this one was requested by Devil bhai (Devilshly_Pur$)
    This song is on Dm scale so i hope u gonna like it...
    In the most part of the songs, Guitarist is playing Arpeggio...its bit tricky but Practice makes the man perfect
    So Good luck guys ^.~ do comment/rep/gift hehe

    Download the Attachment
    Try Gmin / Amin and Fmaj and back to Gmin
    I think you'll like it....

    Guitarman

  11. #11
    ayadd_showman is offline Newbie
    Join Date
    Dec 2006
    Location
    dubai
    Posts
    9
    yea man nice tabs, gud job

  12. #12
    Kashmiri's Avatar
    Kashmiri is offline Newbie
    Join Date
    Mar 2005
    Location
    Fukuoka, Japan
    Posts
    17
    What a top guy

    Lad, u in Chester? u dont/didnt go that uni did u?

    We got hammered by their uni cricket team, so not good memories.

    Anyways keep up the good work man, good dedication for us tramps that cant tab....yet

    Tau Phir Aao tabs were also great

    okay me out

    Rab Rakha
    I've been imitated so well I've heard people copy my mistakes.

    -- Jimi Hendrix

  13. #13
    faiqrock's Avatar
    faiqrock is offline XaiQ
    Join Date
    May 2005
    Location
    Manchester,England
    Posts
    1,373
    @ayyad thanks
    @kashmiri: am in manchester lol thanks for the comments : )
    ...\m/-(--_,)-\m/....Faiq....\m/-(-_-)-\m/...

  14. #14
    born2tab's Avatar
    born2tab is offline rhythm guitarist
    Join Date
    Aug 2005
    Location
    Banglore
    Posts
    776
    some doubts faiq...

    in your tabs what does the notations b,s and r mean??
    b i m assuming refers to bending and s means sliding..rite??
    still cant figure out what r means???

  15. #15
    faiqrock's Avatar
    faiqrock is offline XaiQ
    Join Date
    May 2005
    Location
    Manchester,England
    Posts
    1,373
    ^ oh sry forgot to mention
    yeah u'r right
    b- Bending
    s- Slide
    h- Hammer on
    P - pull off
    and r means Release the String slowly
    after you bend, u have to release it so
    r - release
    ...\m/-(--_,)-\m/....Faiq....\m/-(-_-)-\m/...

 

 
Page 1 of 3 123 LastLast

Similar Threads

  1. kuch is tarah - atif aslam guitar chords
    By pieoooossshh in forum Hindi Guitar Tabs - Submit or Request
    Replies: 20
    Last Post: 02-14-2012, 06:49 PM
  2. Kuch is Tarah...Atif cover....touched my heart
    By max_payne16 in forum IGT Soundtrack - Your Band, Your Gig, Your Music
    Replies: 19
    Last Post: 11-29-2007, 11:55 PM
  3. SUB: KUCH IS TARAH Tabs - Atif (Doorie)
    By paranoid13rohan in forum Hindi Guitar Tabs - Submit or Request
    Replies: 5
    Last Post: 11-28-2007, 09:55 AM
  4. guitar tabs for kuch iss tarha, atif aslam
    By samirkader in forum Hindi Guitar Tabs - Submit or Request
    Replies: 0
    Last Post: 03-20-2007, 01:14 AM
  5. Kuch is Terhan by atif aslam
    By cant_get_enough in forum Pakistani Guitar Tabs - Submit or Request
    Replies: 0
    Last Post: 01-19-2007, 06:01 AM

Bookmarks

Posting Permissions

  • You may not post new threads
  • You may not post replies
  • You may not post attachments
  • You may not edit your posts
  •  
Single Sign On provided by vBSSO